  0
SECTION
  2
HEADER
  9
$ACADVER
  1
AC1009
  9
$INSBASE
 10
0.0
 20
0.0
 30
0.0
  9
$EXTMIN
 10
-180.01098548994739
 20
-271.68557005312488
 30
-0.0015258207003583
  9
$EXTMAX
 10
180.01098716632811
 20
263.54811651401701
 30
0.0000000349246037
  9
$LIMMIN
 10
0.0
 20
0.0
  9
$LIMMAX
 10
0.0
 20
0.0
  9
$ORTHOMODE
 70
     0
  9
$REGENMODE
 70
     1
  9
$FILLMODE
 70
     1
  9
$QTEXTMODE
 70
     0
  9
$MIRRTEXT
 70
     1
  9
$DRAGMODE
 70
     2
  9
$LTSCALE
 40
10.16
  9
$OSMODE
 70
   231
  9
$ATTMODE
 70
     1
  9
$TEXTSIZE
 40
0.0
  9
$TRACEWID
 40
1.0
  9
$TEXTSTYLE
  7
STANDARD
  9
$CLAYER
  8
DATA
  9
$CELTYPE
  6
BYLAYER
  9
$CECOLOR
 62
   256
  9
$DIMSCALE
 40
1.0
  9
$DIMASZ
 40
0.18
  9
$DIMEXO
 40
0.0625
  9
$DIMDLI
 40
0.38
  9
$DIMRND
 40
0.0
  9
$DIMDLE
 40
0.0
  9
$DIMEXE
 40
0.18
  9
$DIMTP
 40
0.0
  9
$DIMTM
 40
0.0
  9
$DIMTXT
 40
0.18
  9
$DIMCEN
 40
0.09
  9
$DIMTSZ
 40
0.0
  9
$DIMTOL
 70
     0
  9
$DIMLIM
 70
     0
  9
$DIMTIH
 70
     1
  9
$DIMTOH
 70
     1
  9
$DIMSE1
 70
     0
  9
$DIMSE2
 70
     0
  9
$DIMTAD
 70
     0
  9
$DIMZIN
 70
     0
  9
$DIMBLK
  1

  9
$DIMASO
 70
     1
  9
$DIMSHO
 70
     1
  9
$DIMPOST
  1

  9
$DIMAPOST
  1

  9
$DIMALT
 70
     0
  9
$DIMALTD
 70
     2
  9
$DIMALTF
 40
25.399999999999999
  9
$DIMLFAC
 40
1.0
  9
$DIMTOFL
 70
     0
  9
$DIMTVP
 40
0.0
  9
$DIMTIX
 70
     0
  9
$DIMSOXD
 70
     0
  9
$DIMSAH
 70
     0
  9
$DIMBLK1
  1

  9
$DIMBLK2
  1

  9
$DIMSTYLE
  2
STANDARD
  9
$DIMCLRD
 70
     0
  9
$DIMCLRE
 70
     0
  9
$DIMCLRT
 70
     0
  9
$DIMTFAC
 40
1.0
  9
$DIMGAP
 40
0.09
  9
$LUNITS
 70
     2
  9
$LUPREC
 70
     4
  9
$SKETCHINC
 40
0.1
  9
$FILLETRAD
 40
0.0
  9
$AUNITS
 70
     0
  9
$AUPREC
 70
     0
  9
$MENU
  1
acad
  9
$ELEVATION
 40
0.0
  9
$PELEVATION
 40
0.0
  9
$THICKNESS
 40
0.0
  9
$LIMCHECK
 70
     0
  9
$BLIPMODE
 70
     0
  9
$CHAMFERA
 40
0.0
  9
$CHAMFERB
 40
0.0
  9
$SKPOLY
 70
     0
  9
$TDCREATE
 40
2456279.4984259261
  9
$TDUPDATE
 40
2456279.5031019212
  9
$TDINDWG
 40
0.0003297685
  9
$TDUSRTIMER
 40
0.0003296412
  9
$USRTIMER
 70
     1
  9
$ANGBASE
 50
0.0
  9
$ANGDIR
 70
     0
  9
$PDMODE
 70
     1
  9
$PDSIZE
 40
-2.0
  9
$PLINEWID
 40
0.0
  9
$COORDS
 70
     2
  9
$SPLFRAME
 70
     0
  9
$SPLINETYPE
 70
     6
  9
$SPLINESEGS
 70
     8
  9
$ATTDIA
 70
     0
  9
$ATTREQ
 70
     1
  9
$HANDLING
 70
     1
  9
$HANDSEED
  5
856
  9
$SURFTAB1
 70
     6
  9
$SURFTAB2
 70
     6
  9
$SURFTYPE
 70
     6
  9
$SURFU
 70
     6
  9
$SURFV
 70
     6
  9
$UCSNAME
  2

  9
$UCSORG
 10
0.0
 20
0.0
 30
0.0
  9
$UCSXDIR
 10
1.0
 20
0.0
 30
0.0
  9
$UCSYDIR
 10
0.0
 20
1.0
 30
0.0
  9
$PUCSNAME
  2

  9
$PUCSORG
 10
0.0
 20
0.0
 30
0.0
  9
$PUCSXDIR
 10
1.0
 20
0.0
 30
0.0
  9
$PUCSYDIR
 10
0.0
 20
1.0
 30
0.0
  9
$USERI1
 70
     0
  9
$USERI2
 70
     0
  9
$USERI3
 70
     0
  9
$USERI4
 70
     0
  9
$USERI5
 70
     0
  9
$USERR1
 40
0.0
  9
$USERR2
 40
0.0
  9
$USERR3
 40
0.0
  9
$USERR4
 40
0.0
  9
$USERR5
 40
0.0
  9
$WORLDVIEW
 70
     1
  9
$SHADEDGE
 70
     3
  9
$SHADEDIF
 70
    70
  9
$TILEMODE
 70
     1
  9
$MAXACTVP
 70
    64
  9
$PLIMCHECK
 70
     0
  9
$PEXTMIN
 10
1.0000000000000000E+020
 20
1.0000000000000000E+020
 30
1.0000000000000000E+020
  9
$PEXTMAX
 10
-1.0000000000000000E+020
 20
-1.0000000000000000E+020
 30
-1.0000000000000000E+020
  9
$PLIMMIN
 10
0.0
 20
0.0
  9
$PLIMMAX
 10
12.0
 20
9.0
  9
$UNITMODE
 70
     0
  9
$VISRETAIN
 70
     0
  9
$PLINEGEN
 70
     1
  9
$PSLTSCALE
 70
     0
  0
ENDSEC
  0
SECTION
  2
TABLES
  0
TABLE
  2
VPORT
 70
     1
  0
VPORT
  2
*ACTIVE
 70
     0
 10
0.0
 20
0.0
 11
1.0
 21
1.0
 12
0.000000838190374
 22
-3.5318137563878049
 13
0.0
 23
0.0
 14
1.0
 24
1.0
 15
0.0
 25
0.0
 16
0.0
 26
0.0
 36
1.0
 17
0.0
 27
0.0
 37
0.0
 40
539.31252800583354
 41
2.5684380032206109
 42
50.0
 43
0.0
 44
0.0
 50
0.0
 51
0.0
 71
     0
 72
  2000
 73
     1
 74
     1
 75
     0
 76
     0
 77
     0
 78
     0
  0
ENDTAB
  0
TABLE
  2
LTYPE
 70
    12
  0
LTYPE
  2
CONTINUOUS
 70
     0
  3
Solid line
 72
    65
 73
     0
 40
0.0
  0
LTYPE
  2
PHANTOM2
 70
     0
  3
___ _ _ ___ _ _ ___ _ _ ___ _ _
 72
    65
 73
     6
 40
1.25
 49
0.625
 49
-0.125
 49
0.125
 49
-0.125
 49
0.125
 49
-0.125
  0
ENDTAB
  0
TABLE
  2
LAYER
 70
     5
  0
LAYER
  2
0
 70
     0
 62
     7
  6
CONTINUOUS
  0
LAYER
  2
DATA
 70
     0
 62
     7
  6
CONTINUOUS
  0
LAYER
  2
HIBINO-BASE
 70
     0
 62
     7
  6
CONTINUOUS
  0
LAYER
  2
SPEC
 70
     0
 62
     7
  6
CONTINUOUS
  0
LAYER
  2
DIMNSIONS
 70
     0
 62
     7
  6
CONTINUOUS
  0
ENDTAB
  0
TABLE
  2
STYLE
 70
     3
  0
STYLE
  2
STANDARD
 70
     0
 40
0.0
 41
1.0
 50
0.0
 71
     0
 42
0.0
  3
txt
  4
BIGFONT.SHX
  0
ENDTAB
  0
TABLE
  2
VIEW
 70
     0
  0
ENDTAB
  0
TABLE
  2
UCS
 70
     0
  0
ENDTAB
  0
TABLE
  2
APPID
 70
     4
  0
APPID
  2
ACAD
 70
     0
  0
APPID
  2
ACADANNOTATIVE
 70
     0
  0
APPID
  2
ACAD_NAV_VCDISPLAY
 70
     0
  0
APPID
  2
ACAD_MLEADERVER
 70
     0
  0
ENDTAB
  0
TABLE
  2
DIMSTYLE
 70
     2
  0
DIMSTYLE
  2
STANDARD
 70
     0
  3

  4

  5

  6

  7

 40
1.0
 41
0.18
 42
0.0625
 43
0.38
 44
0.18
 45
0.0
 46
0.0
 47
0.0
 48
0.0
140
0.18
141
0.09
142
0.0
143
25.399999999999999
144
1.0
145
0.0
146
1.0
147
0.09
 71
     0
 72
     0
 73
     1
 74
     1
 75
     0
 76
     0
 77
     0
 78
     0
170
     0
171
     2
172
     0
173
     0
174
     0
175
     0
176
     0
177
     0
178
     0
  0
ENDTAB
  0
ENDSEC
  0
SECTION
  2
BLOCKS
  0
BLOCK
  8
0
  2
$MODEL_SPACE
 70
     0
 10
0.0
 20
0.0
 30
0.0
  3
$MODEL_SPACE
  1

  0
ENDBLK
  5
76C
  8
0
  0
BLOCK
 67
     1
  8
0
  2
$PAPER_SPACE
 70
     0
 10
0.0
 20
0.0
 30
0.0
  3
$PAPER_SPACE
  1

  0
ENDBLK
  5
768
 67
     1
  8
0
  0
ENDSEC
  0
SECTION
  2
ENTITIES
  0
LINE
  5
2C
  8
HIBINO-BASE
  6
CONTINUOUS
 62
     7
 10
-180.0
 20
263.53181500000011
 30
0.0
 11
180.0
 21
263.53181500000011
 31
0.0
  0
LINE
  5
2D
  8
HIBINO-BASE
  6
CONTINUOUS
 62
     7
 10
180.0
 20
-256.46818500000001
 30
0.0
 11
-180.0
 21
-256.46818500000001
 31
0.0
  0
LINE
  5
2E
  8
HIBINO-BASE
  6
CONTINUOUS
 62
     7
 10
-180.0
 20
-256.46818500000001
 30
0.0
 11
-180.0
 21
263.53181500000011
 31
0.0
  0
LINE
  5
2F
  8
HIBINO-BASE
  6
CONTINUOUS
 62
     7
 10
180.0
 20
263.53181500000011
 30
0.0
 11
180.0
 21
-256.46818500000001
 31
0.0
  0
LINE
  5
30
  8
HIBINO-BASE
  6
CONTINUOUS
 62
     7
 10
0.0000000000000142
 20
-211.46818500000001
 30
0.0
 11
180.0
 21
-211.46818500000001
 31
0.0
  0
LINE
  5
31
  8
HIBINO-BASE
  6
CONTINUOUS
 62
     7
 10
0.0000000000000142
 20
-256.46818500000001
 30
0.0
 11
0.0000000000000142
 21
-211.46818500000001
 31
0.0
  0
TEXT
  5
32
  8
HIBINO-BASE
 62
     7
 10
1.8000000000000249
 20
-216.48557166666669
 30
0.0
 40
3.2576822916666659
  1
NOTE
 41
0.7
 11
1.8000000000000249
 21
-213.22788937499999
 31
0.0
 73
     3
  0
LINE
  5
33
  8
HIBINO-BASE
  6
CONTINUOUS
 62
     7
 10
70.000000000000043
 20
-256.46818500000001
 30
0.0
 11
70.000000000000043
 21
-211.46818500000001
 31
0.0
  0
TEXT
  5
34
  8
HIBINO-BASE
 62
     7
 10
71.799999999999983
 20
-216.48557166666669
 30
0.0
 40
3.2576822916666659
  1
TITLE
 41
0.7
 11
71.799999999999983
 21
-213.22788937499999
 31
0.0
 73
     3
  0
LINE
  5
35
  8
HIBINO-BASE
  6
CONTINUOUS
 62
     7
 10
0.0000000000000142
 20
-236.46818500000001
 30
0.0
 11
180.0
 21
-236.46818500000001
 31
0.0
  0
TEXT
  5
36
  8
HIBINO-BASE
 62
     7
 10
96.799999999999983
 20
-241.37293166666669
 30
0.0
 40
3.2576822916666659
  1
DRAWN
 41
0.7
 11
96.799999999999983
 21
-238.11524937499999
 31
0.0
 73
     3
  0
TEXT
  5
37
  8
HIBINO-BASE
 62
     7
 10
46.79999999999999
 20
-241.37293166666669
 30
0.0
 40
3.2576822916666659
  1
DATE
 41
0.7
 11
46.79999999999999
 21
-238.11524937499999
 31
0.0
 73
     3
  0
TEXT
  5
38
  8
HIBINO-BASE
 62
     7
 10
26.800000000000001
 20
-241.37293166666669
 30
0.0
 40
3.2576822916666659
  1
SCALE
 41
0.7
 11
26.800000000000001
 21
-238.11524937499999
 31
0.0
 73
     3
  0
TEXT
  5
39
  8
HIBINO-BASE
 62
     7
 10
71.799999999999983
 20
-241.37293166666669
 30
0.0
 40
3.2576822916666659
  1
DESIGN
 41
0.7
 11
71.799999999999983
 21
-238.11524937499999
 31
0.0
 73
     3
  0
TEXT
  5
3A
  8
HIBINO-BASE
 62
     7
 10
146.7999999999999
 20
-241.37293166666669
 30
0.0
 40
3.2576822916666659
  1
DRAWING NO.
 41
0.7
 11
146.7999999999999
 21
-238.11524937499999
 31
0.0
 73
     3
  0
TEXT
  5
3B
  8
HIBINO-BASE
 62
     7
 10
121.7999999999999
 20
-241.37293166666669
 30
0.0
 40
3.2576822916666659
  1
CHECK
 41
0.7
 11
121.7999999999999
 21
-238.11524937499999
 31
0.0
 73
     3
  0
LINE
  5
3C
  8
HIBINO-BASE
  6
CONTINUOUS
 62
     7
 10
28.750000000000011
 20
-253.96818500000001
 30
0.0
 11
36.250000000000028
 21
-246.46818500000001
 31
0.0
  0
TEXT
  5
3D
  8
HIBINO-BASE
 62
     7
 10
27.500000000000011
 20
-248.68607166666661
 30
0.0
 40
3.2576822916666659
  1
1
 41
0.7
 11
27.500000000000011
 21
-245.42838937499999
 31
0.0
 73
     3
  0
LINE
  5
3E
  8
HIBINO-BASE
  6
CONTINUOUS
 62
     7
 10
25.000000000000011
 20
-256.46818500000001
 30
0.0
 11
25.000000000000011
 21
-236.46818500000001
 31
0.0
  0
LINE
  5
3F
  8
HIBINO-BASE
  6
CONTINUOUS
 62
     7
 10
44.999999999999993
 20
-256.46818500000001
 30
0.0
 11
44.999999999999993
 21
-236.46818500000001
 31
0.0
  0
LINE
  5
40
  8
HIBINO-BASE
  6
CONTINUOUS
 62
     7
 10
94.999999999999957
 20
-236.46818500000001
 30
0.0
 11
94.999999999999957
 21
-256.46818500000001
 31
0.0
  0
LINE
  5
41
  8
HIBINO-BASE
  6
CONTINUOUS
 62
     7
 10
145.0
 20
-236.46818500000001
 30
0.0
 11
145.0
 21
-256.46818500000001
 31
0.0
  0
LINE
  5
42
  8
HIBINO-BASE
  6
CONTINUOUS
 62
     7
 10
119.9999999999999
 20
-256.46818500000001
 30
0.0
 11
119.9999999999999
 21
-236.46818500000001
 31
0.0
  0
TEXT
  5
43
  8
HIBINO-BASE
 62
     7
 10
46.713080000000019
 20
-250.7408916666667
 30
0.0
 40
3.2576822916666659
  1
'12.12.
 41
0.7
 11
46.713080000000019
 21
-247.483209375
 31
0.0
 73
     3
  0
TEXT
  5
44
  8
HIBINO-BASE
 62
     7
 10
35.000000000000007
 20
-252.43607166666669
 30
0.0
 40
3.2576822916666659
  1
2
 41
0.7
 11
35.000000000000007
 21
-249.17838937499999
 31
0.0
 73
     3
  0
TEXT
  5
45
  8
HIBINO-BASE
 62
     7
 10
98.011620022069224
 20
-250.7408916666667
 30
0.0
 40
3.2576822916666659
  1
N.Sasaki
 41
0.7
 11
98.011620022069224
 21
-247.483209375
 31
0.0
 73
     3
  0
TEXT
  5
46
  8
HIBINO-BASE
 62
     7
 10
7.7666666666667208
 20
-252.51618500000001
 30
0.0
 40
6.5153645833333318
  1
A4
 41
0.7
 11
7.7666666666667208
 21
-246.00082041666661
 31
0.0
 73
     3
  0
TEXT
  5
47
  8
HIBINO-BASE
 62
     7
 10
1.916666666666671
 20
-241.7070949999999
 30
0.0
 40
3.2576822916666659
  1
PAPER SIZE
 41
0.7
 11
1.916666666666671
 21
-238.44941270833331
 31
0.0
 73
     3
  0
TEXT
  5
48
  8
HIBINO-BASE
 62
     7
 10
-165.63199999999989
 20
-269.28554059999988
 30
0.0
 40
7.2000883593749991
  1
Hibino Corporation
 41
0.7
 11
-165.63199999999989
 21
-262.08545224062487
 31
0.0
 73
     3
  0
TEXT
  5
49
  8
HIBINO-BASE
 62
     7
 10
100.13678
 20
-269.28554059999988
 30
0.0
 40
7.2000883593749991
  1
ヒビノ株式会社
 41
0.7
 11
100.13678
 21
-262.08545224062487
 31
0.0
 73
     3
  0
LINE
  5
4A
  8
SPEC
  6
CONTINUOUS
 62
     7
 10
-164.99999999999989
 20
243.53181499999999
 30
0.0
 11
130.0
 21
243.53181499999999
 31
0.0
  0
LINE
  5
4B
  8
SPEC
  6
CONTINUOUS
 62
     7
 10
-164.99999999999989
 20
236.03181499999999
 30
0.0
 11
130.0
 21
236.03181499999999
 31
0.0
  0
LINE
  5
4C
  8
SPEC
  6
CONTINUOUS
 62
     7
 10
-164.99999999999989
 20
221.03181499999999
 30
0.0
 11
130.0
 21
221.03181499999999
 31
0.0
  0
LINE
  5
4D
  8
SPEC
  6
CONTINUOUS
 62
     7
 10
-164.99999999999989
 20
228.53181499999999
 30
0.0
 11
130.0
 21
228.53181499999999
 31
0.0
  0
LINE
  5
4E
  8
SPEC
  6
CONTINUOUS
 62
     7
 10
-164.99999999999989
 20
243.53181499999999
 30
0.0
 11
-164.99999999999989
 21
221.03181499999999
 31
0.0
  0
TEXT
  5
4F
  8
SPEC
 62
     7
 10
-162.49999999999989
 20
246.318355
 30
0.0
 40
4.8865234375000002
  1
仕様
 41
0.7
 11
-162.49999999999989
 21
251.20487843750001
 31
0.0
 73
     3
  0
LINE
  5
50
  8
SPEC
  6
CONTINUOUS
 62
     7
 10
-99.999999999999957
 20
243.53181499999999
 30
0.0
 11
-99.999999999999957
 21
221.03181499999999
 31
0.0
  0
LINE
  5
51
  8
SPEC
  6
CONTINUOUS
 62
     7
 10
130.0
 20
243.53181499999999
 30
0.0
 11
130.0
 21
221.03181499999999
 31
0.0
  0
TEXT
  5
52
  8
SPEC
 62
     7
 10
-98.19999999999996
 20
237.8822352940453
 30
0.0
 40
3.2136901266607381
  1
\U+03C619.0\U+00D7163.2mm
 41
0.7
 11
-98.19999999999996
 21
241.09592542070601
 31
0.0
 73
     3
  0
TEXT
  5
53
  8
SPEC
 62
     7
 10
-163.19999999999999
 20
237.8822352940453
 30
0.0
 40
3.2136901266607381
  1
寸法(\U+03C6\U+00D7全長)
 41
0.7
 11
-163.19999999999999
 21
241.09592542070601
 31
0.0
 73
     3
  0
TEXT
  5
54
  8
SPEC
 62
     7
 10
-163.19999999999999
 20
230.38223529404539
 30
0.0
 40
3.2136901266607381
  1
質量
 41
0.7
 11
-163.19999999999999
 21
233.5959254207061
 31
0.0
 73
     3
  0
TEXT
  5
55
  8
SPEC
 62
     7
 10
-163.19999999999999
 20
222.88223529404539
 30
0.0
 40
3.2136901266607381
  1
付属品
 41
0.7
 11
-163.19999999999999
 21
226.09592542070621
 31
0.0
 73
     3
  0
TEXT
  5
56
  8
SPEC
 62
     7
 10
-98.19999999999996
 20
222.88223529404539
 30
0.0
 40
3.2136901266607381
  1
ライトリング
 41
0.7
 11
-98.19999999999996
 21
226.09592542070621
 31
0.0
 73
     3
  0
TEXT
  5
57
  8
SPEC
 62
     7
 10
-98.19999999999996
 20
230.38223529404539
 30
0.0
 40
3.2136901266607381
  1
75g
 41
0.7
 11
-98.19999999999996
 21
233.5959254207061
 31
0.0
 73
     3
  0
TEXT
  5
58
  8
DIMNSIONS
 62
     7
 10
-40.0
 20
-231.929205
 30
0.0
 40
4.8865234375000002
  1
(単位：mm)
 41
0.7
 11
-40.0
 21
-227.04268156250001
 31
0.0
 73
     3
  0
LINE
  5
59
  8
DIMNSIONS
  6
CONTINUOUS
 62
     7
 10
-43.28248557872913
 20
-136.7175144212697
 30
0.0
 11
-35.0
 21
-144.99999999999969
 31
0.0
  0
LINE
  5
5A
  8
DIMNSIONS
  6
CONTINUOUS
 62
     7
 10
-43.28248557872913
 20
-136.7175144212697
 30
0.0
 11
-38.798491876358582
 21
-139.30634939237791
 31
0.0
  0
LINE
  5
5B
  8
DIMNSIONS
  6
CONTINUOUS
 62
     7
 10
-43.28248557872913
 20
-136.7175144212697
 30
0.0
 11
-40.693650607620903
 21
-141.20150812364031
 31
0.0
  0
LINE
  5
5C
  8
DIMNSIONS
  6
CONTINUOUS
 62
     7
 10
-35.0
 20
-144.99999999999969
 30
0.0
 11
-9.8332996898227272
 21
-144.99999999999969
 31
0.0
  0
TEXT
  5
5D
  8
DIMNSIONS
 62
     7
 10
-31.0
 20
-143.01222067672191
 30
0.0
 40
5.4294789811864126
  1
\U+03C619.0
 41
0.7
 11
-31.0
 21
-137.5827416955355
 31
0.0
 73
     3
  0
LINE
  5
5E
  8
DIMNSIONS
  6
CONTINUOUS
 62
     7
 10
-58.100000000000023
 20
63.199999999999989
 30
0.0
 11
-94.0
 21
63.199999999999989
 31
0.0
  0
LINE
  5
5F
  8
DIMNSIONS
  6
CONTINUOUS
 62
     7
 10
-59.543999999999983
 20
-99.999999999999716
 30
0.0
 11
-94.0
 21
-99.999999999999716
 31
0.0
  0
LINE
  5
60
  8
DIMNSIONS
  6
CONTINUOUS
 62
     7
 10
-90.0
 20
63.199999999999989
 30
0.0
 11
-90.0
 21
-99.999999999999716
 31
0.0
  0
LINE
  5
61
  8
DIMNSIONS
  6
CONTINUOUS
 62
     7
 10
-90.0
 20
63.199999999999989
 30
0.0
 11
-88.659920409699509
 21
58.19875488281248
 31
0.0
  0
LINE
  5
62
  8
DIMNSIONS
  6
CONTINUOUS
 62
     7
 10
-90.0
 20
63.199999999999989
 30
0.0
 11
-91.340079590300476
 21
58.19875488281248
 31
0.0
  0
LINE
  5
63
  8
DIMNSIONS
  6
CONTINUOUS
 62
     7
 10
-90.0
 20
-99.999999999999716
 30
0.0
 11
-91.340079590300476
 21
-94.998754882812193
 31
0.0
  0
LINE
  5
64
  8
DIMNSIONS
  6
CONTINUOUS
 62
     7
 10
-90.0
 20
-99.999999999999716
 30
0.0
 11
-88.659920409699509
 21
-94.998754882812193
 31
0.0
  0
TEXT
  5
65
  8
DIMNSIONS
 62
     7
 10
-91.987777777777737
 20
-27.219444444444282
 30
0.0
 40
5.4294704861111107
  1
163.2
 50
90.0
 41
0.7
 11
-97.417248263888851
 21
-27.219444444444282
 31
0.0
 73
     3
  0
LINE
  5
66
  8
DIMNSIONS
  6
CONTINUOUS
 62
     7
 10
-57.712499999999977
 20
-27.20000000000001
 30
0.0
 11
-79.0
 21
-27.20000000000001
 31
0.0
  0
LINE
  5
67
  8
DIMNSIONS
  6
CONTINUOUS
 62
     7
 10
-57.464999999999982
 20
37.90300000000002
 30
0.0
 11
-79.0
 21
37.90300000000002
 31
0.0
  0
LINE
  5
68
  8
DIMNSIONS
  6
CONTINUOUS
 62
     7
 10
-75.0
 20
-27.20000000000001
 30
0.0
 11
-75.0
 21
37.90300000000002
 31
0.0
  0
LINE
  5
69
  8
DIMNSIONS
  6
CONTINUOUS
 62
     7
 10
-75.0
 20
-27.20000000000001
 30
0.0
 11
-76.340079590300505
 21
-22.198754882812501
 31
0.0
  0
LINE
  5
6A
  8
DIMNSIONS
  6
CONTINUOUS
 62
     7
 10
-75.0
 20
-27.20000000000001
 30
0.0
 11
-73.659920409699509
 21
-22.198754882812501
 31
0.0
  0
LINE
  5
6B
  8
DIMNSIONS
  6
CONTINUOUS
 62
     7
 10
-75.0
 20
37.90300000000002
 30
0.0
 11
-73.659920409699509
 21
32.901754882812511
 31
0.0
  0
LINE
  5
6C
  8
DIMNSIONS
  6
CONTINUOUS
 62
     7
 10
-75.0
 20
37.90300000000002
 30
0.0
 11
-76.340079590300505
 21
32.901754882812511
 31
0.0
  0
TEXT
  5
6D
  8
DIMNSIONS
 62
     7
 10
-76.987777777777737
 20
-1.7040555555555541
 30
0.0
 40
5.4294704861111107
  1
65.1
 50
90.0
 41
0.7
 11
-82.417248263888851
 21
-1.7040555555555541
 31
0.0
 73
     3
  0
LINE
  5
6E
  8
DIMNSIONS
  6
CONTINUOUS
 62
     7
 10
-57.464999999999982
 20
37.90300000000002
 30
0.0
 11
-79.0
 21
37.90300000000002
 31
0.0
  0
LINE
  5
6F
  8
DIMNSIONS
  6
CONTINUOUS
 62
     7
 10
-58.100000000000023
 20
63.199999999999989
 30
0.0
 11
-79.0
 21
63.199999999999989
 31
0.0
  0
LINE
  5
70
  8
DIMNSIONS
  6
CONTINUOUS
 62
     7
 10
-75.0
 20
37.90300000000002
 30
0.0
 11
-75.0
 21
63.199999999999989
 31
0.0
  0
LINE
  5
71
  8
DIMNSIONS
  6
CONTINUOUS
 62
     7
 10
-75.0
 20
37.90300000000002
 30
0.0
 11
-76.340079590300505
 21
42.9042451171875
 31
0.0
  0
LINE
  5
72
  8
DIMNSIONS
  6
CONTINUOUS
 62
     7
 10
-75.0
 20
37.90300000000002
 30
0.0
 11
-73.659920409699509
 21
42.9042451171875
 31
0.0
  0
LINE
  5
73
  8
DIMNSIONS
  6
CONTINUOUS
 62
     7
 10
-75.0
 20
63.199999999999989
 30
0.0
 11
-73.659920409699509
 21
58.19875488281248
 31
0.0
  0
LINE
  5
74
  8
DIMNSIONS
  6
CONTINUOUS
 62
     7
 10
-75.0
 20
63.199999999999989
 30
0.0
 11
-76.340079590300505
 21
58.19875488281248
 31
0.0
  0
TEXT
  5
75
  8
DIMNSIONS
 62
     7
 10
-76.987777777777737
 20
43.49594444444444
 30
0.0
 40
5.4294704861111107
  1
25.3
 50
90.0
 41
0.7
 11
-82.417248263888851
 21
43.49594444444444
 31
0.0
 73
     3
  0
LINE
  5
76
  8
DIMNSIONS
  6
CONTINUOUS
 62
     7
 10
90.5
 20
58.999999999999993
 30
0.0
 11
76.0
 21
58.999999999999993
 31
0.0
  0
LINE
  5
77
  8
DIMNSIONS
  6
CONTINUOUS
 62
     7
 10
90.500000003725276
 20
52.59999999999998
 30
0.0
 11
76.0
 21
52.59999999999998
 31
0.0
  0
LINE
  5
78
  8
DIMNSIONS
  6
CONTINUOUS
 62
     7
 10
80.0
 20
52.59999999999998
 30
0.0
 11
80.0
 21
58.999999999999993
 31
0.0
  0
LINE
  5
79
  8
DIMNSIONS
  6
CONTINUOUS
 62
     7
 10
80.0
 20
58.999999999999993
 30
0.0
 11
80.0
 21
68.999999999999986
 31
0.0
  0
LINE
  5
7A
  8
DIMNSIONS
  6
CONTINUOUS
 62
     7
 10
80.0
 20
58.999999999999993
 30
0.0
 11
78.659920409699509
 21
64.00124511718748
 31
0.0
  0
LINE
  5
7B
  8
DIMNSIONS
  6
CONTINUOUS
 62
     7
 10
80.0
 20
58.999999999999993
 30
0.0
 11
81.340079590300505
 21
64.00124511718748
 31
0.0
  0
LINE
  5
7C
  8
DIMNSIONS
  6
CONTINUOUS
 62
     7
 10
80.0
 20
52.59999999999998
 30
0.0
 11
80.0
 21
42.599999999999973
 31
0.0
  0
LINE
  5
7D
  8
DIMNSIONS
  6
CONTINUOUS
 62
     7
 10
80.0
 20
52.59999999999998
 30
0.0
 11
81.340079590300505
 21
47.598754882812479
 31
0.0
  0
LINE
  5
7E
  8
DIMNSIONS
  6
CONTINUOUS
 62
     7
 10
80.0
 20
52.59999999999998
 30
0.0
 11
78.659920409699509
 21
47.598754882812479
 31
0.0
  0
TEXT
  5
7F
  8
DIMNSIONS
 62
     7
 10
78.012220676722222
 20
54.036108251412713
 30
0.0
 40
5.4294789811864126
  1
6
 50
90.0
 41
0.7
 11
72.582741695535816
 21
54.036108251412713
 31
0.0
 73
     3
  0
LINE
  5
80
  8
DIMNSIONS
  6
CONTINUOUS
 62
     7
 10
-46.782664145601252
 20
86.782664145601458
 30
0.0
 11
-40.0
 21
80.0
 31
0.0
  0
LINE
  5
81
  8
DIMNSIONS
  6
CONTINUOUS
 62
     7
 10
-46.782664145601252
 20
86.782664145601458
 30
0.0
 11
-42.298670443230698
 21
84.193829174493246
 31
0.0
  0
LINE
  5
82
  8
DIMNSIONS
  6
CONTINUOUS
 62
     7
 10
-46.782664145601252
 20
86.782664145601458
 30
0.0
 11
-44.193829174493018
 21
82.298670443230904
 31
0.0
  0
LINE
  5
83
  8
DIMNSIONS
  6
CONTINUOUS
 62
     7
 10
-40.0
 20
80.0
 30
0.0
 11
-18.361109765370689
 21
80.0
 31
0.0
  0
TEXT
  5
84
  8
DIMNSIONS
 62
     7
 10
-36.0
 20
81.987777880811024
 30
0.0
 40
5.4294710524490908
  1
\U+03C69.1
 41
0.7
 11
-36.0
 21
87.417248933260112
 31
0.0
 73
     3
  0
LINE
  5
85
  8
DIMNSIONS
  6
CONTINUOUS
 62
     7
 10
106.1987746928169
 20
75.867483538122045
 30
0.0
 11
115.0
 21
70.0
 31
0.0
  0
LINE
  5
86
  8
DIMNSIONS
  6
CONTINUOUS
 62
     7
 10
106.1987746928169
 20
75.867483538122045
 30
0.0
 11
111.1230314305874
 21
74.267495534712808
 31
0.0
  0
LINE
  5
87
  8
DIMNSIONS
  6
CONTINUOUS
 62
     7
 10
106.1987746928169
 20
75.867483538122045
 30
0.0
 11
109.6633121207782
 21
72.019724912534045
 31
0.0
  0
LINE
  5
88
  8
DIMNSIONS
  6
CONTINUOUS
 62
     7
 10
115.0
 20
70.0
 30
0.0
 11
133.11111245685149
 21
70.0
 31
0.0
  0
TEXT
  5
89
  8
DIMNSIONS
 62
     7
 10
119.0
 20
71.987777880811038
 30
0.0
 40
5.4294710524490908
  1
\U+03C615
 41
0.7
 11
119.0
 21
77.417248933260126
 31
0.0
 73
     3
  0
LINE
  5
8A
  8
DIMNSIONS
  6
CONTINUOUS
 62
     7
 10
-57.712499999999977
 20
-27.20000000000001
 30
0.0
 11
-79.0
 21
-27.20000000000001
 31
0.0
  0
LINE
  5
8B
  8
DIMNSIONS
  6
CONTINUOUS
 62
     7
 10
-59.543999999999983
 20
-99.999999999999716
 30
0.0
 11
-79.0
 21
-99.999999999999716
 31
0.0
  0
LINE
  5
8C
  8
DIMNSIONS
  6
CONTINUOUS
 62
     7
 10
-75.0
 20
-27.20000000000001
 30
0.0
 11
-75.0
 21
-99.999999999999716
 31
0.0
  0
LINE
  5
8D
  8
DIMNSIONS
  6
CONTINUOUS
 62
     7
 10
-75.0
 20
-27.20000000000001
 30
0.0
 11
-73.659920409699509
 21
-32.201245117187511
 31
0.0
  0
LINE
  5
8E
  8
DIMNSIONS
  6
CONTINUOUS
 62
     7
 10
-75.0
 20
-27.20000000000001
 30
0.0
 11
-76.340079590300505
 21
-32.201245117187511
 31
0.0
  0
LINE
  5
8F
  8
DIMNSIONS
  6
CONTINUOUS
 62
     7
 10
-75.0
 20
-99.999999999999716
 30
0.0
 11
-76.340079590300505
 21
-94.998754882812193
 31
0.0
  0
LINE
  5
90
  8
DIMNSIONS
  6
CONTINUOUS
 62
     7
 10
-75.0
 20
-99.999999999999716
 30
0.0
 11
-73.659920409699509
 21
-94.998754882812193
 31
0.0
  0
TEXT
  5
91
  8
DIMNSIONS
 62
     7
 10
-77.987777880811095
 20
-70.65555622842561
 30
0.0
 40
5.4294710524490908
  1
72.8
 50
90.0
 41
0.7
 11
-83.417248933260183
 21
-70.65555622842561
 31
0.0
 73
     3
  0
LINE
  5
92
  8
DIMNSIONS
  6
CONTINUOUS
 62
     7
 10
-36.5
 20
-95.0
 30
0.0
 11
-21.0
 21
-95.0
 31
0.0
  0
LINE
  5
93
  8
DIMNSIONS
  6
CONTINUOUS
 62
     7
 10
-41.450000000000003
 20
58.899999999999991
 30
0.0
 11
-21.0
 21
58.899999999999991
 31
0.0
  0
LINE
  5
94
  8
DIMNSIONS
  6
CONTINUOUS
 62
     7
 10
-25.0
 20
-95.0
 30
0.0
 11
-25.0
 21
58.899999999999991
 31
0.0
  0
LINE
  5
95
  8
DIMNSIONS
  6
CONTINUOUS
 62
     7
 10
-25.0
 20
-95.0
 30
0.0
 11
-26.340079590300491
 21
-89.998754882812506
 31
0.0
  0
LINE
  5
96
  8
DIMNSIONS
  6
CONTINUOUS
 62
     7
 10
-25.0
 20
-95.0
 30
0.0
 11
-23.65992040969952
 21
-89.998754882812506
 31
0.0
  0
LINE
  5
97
  8
DIMNSIONS
  6
CONTINUOUS
 62
     7
 10
-25.0
 20
58.899999999999991
 30
0.0
 11
-23.65992040969952
 21
53.89875488281249
 31
0.0
  0
LINE
  5
98
  8
DIMNSIONS
  6
CONTINUOUS
 62
     7
 10
-25.0
 20
58.899999999999991
 30
0.0
 11
-26.340079590300491
 21
53.89875488281249
 31
0.0
  0
TEXT
  5
99
  8
DIMNSIONS
 62
     7
 10
-26.987777880811041
 20
-26.869445117314658
 30
0.0
 40
5.4294710524490908
  1
153.9
 50
90.0
 41
0.7
 11
-32.41724893326014
 21
-26.869445117314658
 31
0.0
 73
     3
  0
TEXT
  5
9A
  8
DATA
 62
     7
 10
-175.0
 20
-240.7156294444444
 30
0.0
 40
3.8006293402777769
  1
※仕様及び外観は予告なく変更されることがあります。
 41
0.7
 11
-175.0
 21
-236.91500010416669
 31
0.0
 73
     3
  0
TEXT
  5
9B
  8
DATA
 62
     7
 10
-175.0
 20
-245.65451833333341
 30
0.0
 40
3.8006293402777769
  1
　また、同一商品でも若干の個体差があることがあります。ご了承ください。
 41
0.7
 11
-175.0
 21
-241.85388899305559
 31
0.0
 73
     3
  0
TEXT
  5
9C
  8
DATA
 62
     7
 10
99.999999999999957
 20
-234.20640499999999
 30
0.0
 40
4.8865234375000002
  1
GN15 M
 41
0.7
 11
99.999999999999957
 21
-229.3198815625
 31
0.0
 73
     3
  0
TEXT
  5
9D
  8
DATA
 62
     7
 10
99.999999999999957
 20
-219.70640499999999
 30
0.0
 40
4.8865234375000002
  1
AKG
 41
0.7
 11
99.999999999999957
 21
-214.8198815625
 31
0.0
 73
     3
  0
TEXT
  5
9E
  8
DATA
 62
     7
 10
94.999999999999957
 20
-226.660315
 30
0.0
 40
3.2576822916666659
  1
グースネック・モジュール
 41
0.7
 11
94.999999999999957
 21
-223.40263270833341
 31
0.0
 73
     3
  0
CIRCLE
  5
9F
  8
DATA
  6
CONTINUOUS
 62
     7
 10
-50.0
 20
90.000000000000298
 30
0.0
 40
4.200000000000002
  0
CIRCLE
  5
A0
  8
DATA
  6
CONTINUOUS
 62
     7
 10
-50.0
 20
90.000000000000298
 30
0.0
 40
4.5499999999999972
  0
CIRCLE
  5
A1
  8
DATA
  6
CONTINUOUS
 62
     7
 10
-50.0
 20
90.000000000000298
 30
0.0
 40
1.5
  0
CIRCLE
  5
A2
  8
DATA
  6
CONTINUOUS
 62
     7
 10
-50.0
 20
90.000000000000298
 30
0.0
 40
1.0
  0
CIRCLE
  5
A3
  8
DATA
  6
CONTINUOUS
 62
     7
 10
-52.799999999999962
 20
90.000000000000298
 30
0.0
 40
0.5
  0
CIRCLE
  5
A4
  8
DATA
  6
CONTINUOUS
 62
     7
 10
-47.199999999999932
 20
90.000000000000298
 30
0.0
 40
0.5
  0
LINE
  5
A5
  8
DATA
  6
CONTINUOUS
 62
     7
 10
94.500000000000014
 20
58.999999999999993
 30
0.0
 11
105.5
 21
58.999999999999993
 31
0.0
  0
LINE
  5
A6
  8
DATA
  6
CONTINUOUS
 62
     7
 10
105.5
 20
58.999999999999993
 30
0.0
 11
105.5
 21
57.5
 31
0.0
  0
LINE
  5
A7
  8
DATA
  6
CONTINUOUS
 62
     7
 10
94.500000000000014
 20
58.999999999999993
 30
0.0
 11
94.500000000000014
 21
57.5
 31
0.0
  0
LINE
  5
A8
  8
DATA
  6
CONTINUOUS
 62
     7
 10
93.555459750660987
 20
53.526053665785312
 30
0.0
 11
94.099999997764812
 21
52.800000002980212
 31
0.0
  0
LINE
  5
A9
  8
DATA
  6
CONTINUOUS
 62
     7
 10
94.500000003725276
 20
52.59999999999998
 30
0.0
 11
105.4999999962747
 21
52.59999999999998
 31
0.0
  0
CIRCLE
  5
AA
  8
DATA
  6
CONTINUOUS
 62
     7
 10
100.0
 20
80.0
 30
0.0
 40
5.5
  0
CIRCLE
  5
AB
  8
DATA
  6
CONTINUOUS
 62
     7
 10
100.0
 20
80.0
 30
0.0
 40
4.4000000000000048
  0
CIRCLE
  5
AC
  8
DATA
  6
CONTINUOUS
 62
     7
 10
100.0
 20
80.0
 30
0.0
 40
7.450000000000002
  0
TEXT
  5
AD
  8
DATA
 62
     7
 10
86.697776496093269
 20
28.757477211986181
 30
0.0
 40
5.4294789811864126
  1
ライトリング
 41
0.7
 72
     1
 11
100.0
 21
31.472216702579392
 31
0.0
 73
     2
  0
LINE
  5
AE
  8
DATA
  6
CONTINUOUS
 62
     7
 10
75.0
 20
25.0
 30
0.0
 11
125.0
 21
25.0
 31
0.0
  0
LINE
  5
AF
  8
DATA
  6
CONTINUOUS
 62
     7
 10
-44.45600000000001
 20
-95.0
 30
0.0
 11
-44.45600000000001
 21
-100.0
 31
0.0
  0
LINE
  5
B0
  8
DATA
  6
CONTINUOUS
 62
     7
 10
-55.543999999999983
 20
-95.0
 30
0.0
 11
-55.543999999999983
 21
-100.0
 31
0.0
  0
LINE
  5
B1
  8
DATA
  6
CONTINUOUS
 62
     7
 10
-44.45600000000001
 20
-100.0
 30
0.0
 11
-55.543999999999983
 21
-100.0
 31
0.0
  0
LINE
  5
B2
  8
DATA
  6
CONTINUOUS
 62
     7
 10
-48.712999999999973
 20
-100.0
 30
0.0
 11
-48.712999999999973
 21
-95.049999999999997
 31
0.0
  0
LINE
  5
B3
  8
DATA
  6
CONTINUOUS
 62
     7
 10
-48.712999999999973
 20
-100.0
 30
0.0
 11
-48.712999999999973
 21
-95.0
 31
0.0
  0
LINE
  5
B4
  8
DATA
  6
CONTINUOUS
 62
     7
 10
-51.287000000000042
 20
-100.0
 30
0.0
 11
-51.287000000000042
 21
-95.0
 31
0.0
  0
LINE
  5
B5
  8
DATA
  6
CONTINUOUS
 62
     7
 10
25.54399999999999
 20
-95.0
 30
0.0
 11
25.54399999999999
 21
-100.0
 31
0.0
  0
LINE
  5
B6
  8
DATA
  6
CONTINUOUS
 62
     7
 10
14.45600000000001
 20
-95.0
 30
0.0
 11
14.45600000000001
 21
-100.0
 31
0.0
  0
LINE
  5
B7
  8
DATA
  6
CONTINUOUS
 62
     7
 10
25.54399999999999
 20
-100.0
 30
0.0
 11
14.45600000000001
 21
-100.0
 31
0.0
  0
LINE
  5
B8
  8
DATA
  6
CONTINUOUS
 62
     7
 10
-59.5
 20
-95.0
 30
0.0
 11
-40.499999999999993
 21
-95.0
 31
0.0
  0
LINE
  5
B9
  8
DATA
  6
CONTINUOUS
 62
     7
 10
-58.909999999999968
 20
-81.139999999999986
 30
0.0
 11
-41.090000000000032
 21
-81.139999999999986
 31
0.0
  0
LINE
  5
BA
  8
DATA
  6
CONTINUOUS
 62
     7
 10
-41.090000000000032
 20
-81.139999999999986
 30
0.0
 11
-40.499999999999993
 21
-95.0
 31
0.0
  0
LINE
  5
BB
  8
DATA
  6
CONTINUOUS
 62
     7
 10
-58.909999999999968
 20
-81.139999999999986
 30
0.0
 11
-59.5
 21
-95.0
 31
0.0
  0
LINE
  5
BC
  8
DATA
  6
CONTINUOUS
 62
     7
 10
-53.712499999999977
 20
-27.20000000000001
 30
0.0
 11
-46.287500000000009
 21
-27.20000000000001
 31
0.0
  0
LINE
  5
BD
  8
DATA
  6
CONTINUOUS
 62
     7
 10
-45.544999999999959
 20
-47.776999999999987
 30
0.0
 11
-41.090000000000032
 21
-81.139999999999986
 31
0.0
  0
LINE
  5
BE
  8
DATA
  6
CONTINUOUS
 62
     7
 10
-54.454999999999991
 20
-47.776999999999987
 30
0.0
 11
-58.909999999999968
 21
-81.139999999999986
 31
0.0
  0
LINE
  5
BF
  8
DATA
  6
CONTINUOUS
 62
     7
 10
-45.544999999999959
 20
-47.776999999999987
 30
0.0
 11
-46.13900000000001
 21
-42.826999999999998
 31
0.0
  0
LINE
  5
C0
  8
DATA
  6
CONTINUOUS
 62
     7
 10
-46.13900000000001
 20
-42.826999999999998
 30
0.0
 11
-46.287500000000009
 21
-37.876999999999988
 31
0.0
  0
LINE
  5
C1
  8
DATA
  6
CONTINUOUS
 62
     7
 10
-46.287500000000009
 20
-37.876999999999988
 30
0.0
 11
-46.287500000000009
 21
-27.20000000000001
 31
0.0
  0
LINE
  5
C2
  8
DATA
  6
CONTINUOUS
 62
     7
 10
-54.454999999999991
 20
-47.776999999999987
 30
0.0
 11
-53.794020771513317
 21
-42.826999999999998
 31
0.0
  0
LINE
  5
C3
  8
DATA
  6
CONTINUOUS
 62
     7
 10
-53.794020771513317
 20
-42.826999999999998
 30
0.0
 11
-53.712499999999977
 21
-37.876999999999988
 31
0.0
  0
LINE
  5
C4
  8
DATA
  6
CONTINUOUS
 62
     7
 10
-53.712499999999977
 20
-37.876999999999988
 30
0.0
 11
-53.712499999999977
 21
-27.20000000000001
 31
0.0
  0
LINE
  5
C5
  8
DATA
  6
CONTINUOUS
 62
     7
 10
-47.029999999999973
 20
37.90300000000002
 30
0.0
 11
-47.029999999999973
 21
-27.20000000000001
 31
0.0
  0
LINE
  5
C6
  8
DATA
  6
CONTINUOUS
 62
     7
 10
-52.97000000000002
 20
37.90300000000002
 30
0.0
 11
-52.97000000000002
 21
-27.20000000000001
 31
0.0
  0
LINE
  5
C7
  8
DATA
  6
CONTINUOUS
 62
     7
 10
-49.009999999999991
 20
-95.0
 30
0.0
 11
-49.009999999999991
 21
-81.139999999999986
 31
0.0
  0
LINE
  5
C8
  8
DATA
  6
CONTINUOUS
 62
     7
 10
-49.009999999999991
 20
-95.0
 30
0.0
 11
-49.009999999999991
 21
-81.139999999999986
 31
0.0
  0
LINE
  5
C9
  8
DATA
  6
CONTINUOUS
 62
     7
 10
-50.990000000000009
 20
-95.0
 30
0.0
 11
-50.990000000000009
 21
-81.139999999999986
 31
0.0
  0
LINE
  5
CA
  8
DATA
  6
CONTINUOUS
 62
     7
 10
-47.029999999999973
 20
-25.751999999999999
 30
0.0
 11
-52.97000000000002
 21
-26.426999999999978
 31
0.0
  0
LINE
  5
CB
  8
DATA
  6
CONTINUOUS
 62
     7
 10
-47.029999999999973
 20
-25.256999999999991
 30
0.0
 11
-52.97000000000002
 21
-25.931999999999992
 31
0.0
  0
LINE
  5
CC
  8
DATA
  6
CONTINUOUS
 62
     7
 10
-47.029999999999973
 20
-25.256999999999991
 30
0.0
 11
-52.97000000000002
 21
-25.931999999999992
 31
0.0
  0
LINE
  5
CD
  8
DATA
  6
CONTINUOUS
 62
     7
 10
-47.029999999999973
 20
-23.772000000000009
 30
0.0
 11
-52.97000000000002
 21
-24.446999999999989
 31
0.0
  0
LINE
  5
CE
  8
DATA
  6
CONTINUOUS
 62
     7
 10
-47.029999999999973
 20
-23.277000000000001
 30
0.0
 11
-52.97000000000002
 21
-23.951999999999991
 31
0.0
  0
LINE
  5
CF
  8
DATA
  6
CONTINUOUS
 62
     7
 10
-47.029999999999973
 20
-23.277000000000001
 30
0.0
 11
-52.97000000000002
 21
-23.951999999999991
 31
0.0
  0
LINE
  5
D0
  8
DATA
  6
CONTINUOUS
 62
     7
 10
-47.029999999999973
 20
-21.792000000000002
 30
0.0
 11
-52.97000000000002
 21
-22.466999999999999
 31
0.0
  0
LINE
  5
D1
  8
DATA
  6
CONTINUOUS
 62
     7
 10
-47.029999999999973
 20
-21.297000000000011
 30
0.0
 11
-52.97000000000002
 21
-21.972000000000001
 31
0.0
  0
LINE
  5
D2
  8
DATA
  6
CONTINUOUS
 62
     7
 10
-47.029999999999973
 20
-21.297000000000011
 30
0.0
 11
-52.97000000000002
 21
-21.972000000000001
 31
0.0
  0
LINE
  5
D3
  8
DATA
  6
CONTINUOUS
 62
     7
 10
-47.029999999999973
 20
-19.812000000000001
 30
0.0
 11
-52.97000000000002
 21
-20.486999999999991
 31
0.0
  0
LINE
  5
D4
  8
DATA
  6
CONTINUOUS
 62
     7
 10
-47.029999999999973
 20
-19.317
 30
0.0
 11
-52.97000000000002
 21
-19.99199999999999
 31
0.0
  0
LINE
  5
D5
  8
DATA
  6
CONTINUOUS
 62
     7
 10
-47.029999999999973
 20
-19.317
 30
0.0
 11
-52.97000000000002
 21
-19.99199999999999
 31
0.0
  0
LINE
  5
D6
  8
DATA
  6
CONTINUOUS
 62
     7
 10
-47.029999999999973
 20
-17.832000000000001
 30
0.0
 11
-52.97000000000002
 21
-18.50699999999998
 31
0.0
  0
LINE
  5
D7
  8
DATA
  6
CONTINUOUS
 62
     7
 10
-47.029999999999973
 20
-17.337
 30
0.0
 11
-52.97000000000002
 21
-18.011999999999979
 31
0.0
  0
LINE
  5
D8
  8
DATA
  6
CONTINUOUS
 62
     7
 10
-47.029999999999973
 20
-17.337
 30
0.0
 11
-52.97000000000002
 21
-18.011999999999979
 31
0.0
  0
LINE
  5
D9
  8
DATA
  6
CONTINUOUS
 62
     7
 10
-47.029999999999973
 20
-15.852
 30
0.0
 11
-52.97000000000002
 21
-16.52699999999998
 31
0.0
  0
LINE
  5
DA
  8
DATA
  6
CONTINUOUS
 62
     7
 10
-47.029999999999973
 20
-15.356999999999999
 30
0.0
 11
-52.97000000000002
 21
-16.031999999999989
 31
0.0
  0
LINE
  5
DB
  8
DATA
  6
CONTINUOUS
 62
     7
 10
-47.029999999999973
 20
-15.356999999999999
 30
0.0
 11
-52.97000000000002
 21
-16.031999999999989
 31
0.0
  0
LINE
  5
DC
  8
DATA
  6
CONTINUOUS
 62
     7
 10
-47.029999999999973
 20
-13.872
 30
0.0
 11
-52.97000000000002
 21
-14.54699999999999
 31
0.0
  0
LINE
  5
DD
  8
DATA
  6
CONTINUOUS
 62
     7
 10
-47.029999999999973
 20
-13.377000000000001
 30
0.0
 11
-52.97000000000002
 21
-14.05199999999998
 31
0.0
  0
LINE
  5
DE
  8
DATA
  6
CONTINUOUS
 62
     7
 10
-47.029999999999973
 20
-13.377000000000001
 30
0.0
 11
-52.97000000000002
 21
-14.05199999999998
 31
0.0
  0
LINE
  5
DF
  8
DATA
  6
CONTINUOUS
 62
     7
 10
-47.029999999999973
 20
-11.891999999999999
 30
0.0
 11
-52.97000000000002
 21
-12.566999999999981
 31
0.0
  0
LINE
  5
E0
  8
DATA
  6
CONTINUOUS
 62
     7
 10
-47.029999999999973
 20
-11.397
 30
0.0
 11
-52.97000000000002
 21
-12.07199999999999
 31
0.0
  0
LINE
  5
E1
  8
DATA
  6
CONTINUOUS
 62
     7
 10
-47.029999999999973
 20
-11.397
 30
0.0
 11
-52.97000000000002
 21
-12.07199999999999
 31
0.0
  0
LINE
  5
E2
  8
DATA
  6
CONTINUOUS
 62
     7
 10
-47.029999999999973
 20
-9.9120000000000008
 30
0.0
 11
-52.97000000000002
 21
-10.586999999999991
 31
0.0
  0
LINE
  5
E3
  8
DATA
  6
CONTINUOUS
 62
     7
 10
-47.029999999999973
 20
-9.4169999999999998
 30
0.0
 11
-52.97000000000002
 21
-10.091999999999979
 31
0.0
  0
LINE
  5
E4
  8
DATA
  6
CONTINUOUS
 62
     7
 10
-47.029999999999973
 20
-9.4169999999999998
 30
0.0
 11
-52.97000000000002
 21
-10.091999999999979
 31
0.0
  0
LINE
  5
E5
  8
DATA
  6
CONTINUOUS
 62
     7
 10
-47.029999999999973
 20
-7.9320000000000013
 30
0.0
 11
-52.97000000000002
 21
-8.6069999999999851
 31
0.0
  0
LINE
  5
E6
  8
DATA
  6
CONTINUOUS
 62
     7
 10
-47.029999999999973
 20
-7.4369999999999958
 30
0.0
 11
-52.97000000000002
 21
-8.1119999999999877
 31
0.0
  0
LINE
  5
E7
  8
DATA
  6
CONTINUOUS
 62
     7
 10
-47.029999999999973
 20
-7.4369999999999958
 30
0.0
 11
-52.97000000000002
 21
-8.1119999999999877
 31
0.0
  0
LINE
  5
E8
  8
DATA
  6
CONTINUOUS
 62
     7
 10
-47.029999999999973
 20
-5.9519999999999982
 30
0.0
 11
-52.97000000000002
 21
-6.6269999999999882
 31
0.0
  0
LINE
  5
E9
  8
DATA
  6
CONTINUOUS
 62
     7
 10
-47.029999999999973
 20
-5.4569999999999999
 30
0.0
 11
-52.97000000000002
 21
-6.1319999999999828
 31
0.0
  0
LINE
  5
EA
  8
DATA
  6
CONTINUOUS
 62
     7
 10
-47.029999999999973
 20
-5.4569999999999999
 30
0.0
 11
-52.97000000000002
 21
-6.1319999999999828
 31
0.0
  0
LINE
  5
EB
  8
DATA
  6
CONTINUOUS
 62
     7
 10
-47.029999999999973
 20
-3.972
 30
0.0
 11
-52.97000000000002
 21
-4.6469999999999843
 31
0.0
  0
LINE
  5
EC
  8
DATA
  6
CONTINUOUS
 62
     7
 10
-47.029999999999973
 20
-3.4769999999999959
 30
0.0
 11
-52.97000000000002
 21
-4.1519999999999859
 31
0.0
  0
LINE
  5
ED
  8
DATA
  6
CONTINUOUS
 62
     7
 10
-47.029999999999973
 20
-3.4769999999999959
 30
0.0
 11
-52.97000000000002
 21
-4.1519999999999859
 31
0.0
  0
LINE
  5
EE
  8
DATA
  6
CONTINUOUS
 62
     7
 10
-47.029999999999973
 20
-1.9919999999999971
 30
0.0
 11
-52.97000000000002
 21
-2.6669999999999869
 31
0.0
  0
LINE
  5
EF
  8
DATA
  6
CONTINUOUS
 62
     7
 10
-47.029999999999973
 20
-1.4970000000000001
 30
0.0
 11
-52.97000000000002
 21
-2.1719999999999891
 31
0.0
  0
LINE
  5
F0
  8
DATA
  6
CONTINUOUS
 62
     7
 10
-47.029999999999973
 20
-1.4970000000000001
 30
0.0
 11
-52.97000000000002
 21
-2.1719999999999891
 31
0.0
  0
LINE
  5
F1
  8
DATA
  6
CONTINUOUS
 62
     7
 10
-47.029999999999973
 20
-0.0120000000000005
 30
0.0
 11
-52.97000000000002
 21
-0.6869999999999905
 31
0.0
  0
LINE
  5
F2
  8
DATA
  6
CONTINUOUS
 62
     7
 10
-47.029999999999973
 20
0.4829999999999971
 30
0.0
 11
-52.97000000000002
 21
-0.1919999999999931
 31
0.0
  0
LINE
  5
F3
  8
DATA
  6
CONTINUOUS
 62
     7
 10
-47.029999999999973
 20
0.4829999999999971
 30
0.0
 11
-52.97000000000002
 21
-0.1919999999999931
 31
0.0
  0
LINE
  5
F4
  8
DATA
  6
CONTINUOUS
 62
     7
 10
-47.029999999999973
 20
1.967999999999996
 30
0.0
 11
-52.97000000000002
 21
1.2930000000000059
 31
0.0
  0
LINE
  5
F5
  8
DATA
  6
CONTINUOUS
 62
     7
 10
-47.029999999999973
 20
2.4630000000000001
 30
0.0
 11
-52.97000000000002
 21
1.7880000000000029
 31
0.0
  0
LINE
  5
F6
  8
DATA
  6
CONTINUOUS
 62
     7
 10
-47.029999999999973
 20
2.4630000000000001
 30
0.0
 11
-52.97000000000002
 21
1.7880000000000029
 31
0.0
  0
LINE
  5
F7
  8
DATA
  6
CONTINUOUS
 62
     7
 10
-47.029999999999973
 20
3.948
 30
0.0
 11
-52.97000000000002
 21
3.2730000000000099
 31
0.0
  0
LINE
  5
F8
  8
DATA
  6
CONTINUOUS
 62
     7
 10
-47.029999999999973
 20
4.4430000000000041
 30
0.0
 11
-52.97000000000002
 21
3.7680000000000069
 31
0.0
  0
LINE
  5
F9
  8
DATA
  6
CONTINUOUS
 62
     7
 10
-47.029999999999973
 20
4.4430000000000041
 30
0.0
 11
-52.97000000000002
 21
3.7680000000000069
 31
0.0
  0
LINE
  5
FA
  8
DATA
  6
CONTINUOUS
 62
     7
 10
-47.029999999999973
 20
5.9280000000000044
 30
0.0
 11
-52.97000000000002
 21
5.2530000000000072
 31
0.0
  0
LINE
  5
FB
  8
DATA
  6
CONTINUOUS
 62
     7
 10
-47.029999999999973
 20
6.4229999999999938
 30
0.0
 11
-52.97000000000002
 21
5.7480000000000109
 31
0.0
  0
LINE
  5
FC
  8
DATA
  6
CONTINUOUS
 62
     7
 10
-47.029999999999973
 20
6.4229999999999938
 30
0.0
 11
-52.97000000000002
 21
5.7480000000000109
 31
0.0
  0
LINE
  5
FD
  8
DATA
  6
CONTINUOUS
 62
     7
 10
-47.029999999999973
 20
7.9080000000000084
 30
0.0
 11
-52.97000000000002
 21
7.2330000000000112
 31
0.0
  0
LINE
  5
FE
  8
DATA
  6
CONTINUOUS
 62
     7
 10
-47.029999999999973
 20
8.4029999999999987
 30
0.0
 11
-52.97000000000002
 21
7.7280000000000006
 31
0.0
  0
LINE
  5
FF
  8
DATA
  6
CONTINUOUS
 62
     7
 10
-47.029999999999973
 20
8.4029999999999987
 30
0.0
 11
-52.97000000000002
 21
7.7280000000000006
 31
0.0
  0
LINE
  5
100
  8
DATA
  6
CONTINUOUS
 62
     7
 10
-47.029999999999973
 20
9.8879999999999981
 30
0.0
 11
-52.97000000000002
 21
9.2130000000000152
 31
0.0
  0
LINE
  5
101
  8
DATA
  6
CONTINUOUS
 62
     7
 10
-47.029999999999973
 20
10.382999999999999
 30
0.0
 11
-52.97000000000002
 21
9.7080000000000037
 31
0.0
  0
LINE
  5
102
  8
DATA
  6
CONTINUOUS
 62
     7
 10
-47.029999999999973
 20
10.382999999999999
 30
0.0
 11
-52.97000000000002
 21
9.7080000000000037
 31
0.0
  0
LINE
  5
103
  8
DATA
  6
CONTINUOUS
 62
     7
 10
-47.029999999999973
 20
11.868
 30
0.0
 11
-52.97000000000002
 21
11.193
 31
0.0
  0
LINE
  5
104
  8
DATA
  6
CONTINUOUS
 62
     7
 10
-47.029999999999973
 20
12.362999999999991
 30
0.0
 11
-52.97000000000002
 21
11.688000000000001
 31
0.0
  0
LINE
  5
105
  8
DATA
  6
CONTINUOUS
 62
     7
 10
-47.029999999999973
 20
12.362999999999991
 30
0.0
 11
-52.97000000000002
 21
11.688000000000001
 31
0.0
  0
LINE
  5
106
  8
DATA
  6
CONTINUOUS
 62
     7
 10
-47.029999999999973
 20
13.848000000000001
 30
0.0
 11
-52.97000000000002
 21
13.173000000000011
 31
0.0
  0
LINE
  5
107
  8
DATA
  6
CONTINUOUS
 62
     7
 10
-47.029999999999973
 20
14.342999999999989
 30
0.0
 11
-52.97000000000002
 21
13.66800000000001
 31
0.0
  0
LINE
  5
108
  8
DATA
  6
CONTINUOUS
 62
     7
 10
-47.029999999999973
 20
14.342999999999989
 30
0.0
 11
-52.97000000000002
 21
13.66800000000001
 31
0.0
  0
LINE
  5
109
  8
DATA
  6
CONTINUOUS
 62
     7
 10
-47.029999999999973
 20
15.827999999999991
 30
0.0
 11
-52.97000000000002
 21
15.153000000000009
 31
0.0
  0
LINE
  5
10A
  8
DATA
  6
CONTINUOUS
 62
     7
 10
-47.029999999999973
 20
16.323
 30
0.0
 11
-52.97000000000002
 21
15.64800000000001
 31
0.0
  0
LINE
  5
10B
  8
DATA
  6
CONTINUOUS
 62
     7
 10
-47.029999999999973
 20
-21.297000000000011
 30
0.0
 11
-52.97000000000002
 21
-21.972000000000001
 31
0.0
  0
LINE
  5
10C
  8
DATA
  6
CONTINUOUS
 62
     7
 10
-47.029999999999973
 20
-19.812000000000001
 30
0.0
 11
-52.97000000000002
 21
-20.486999999999991
 31
0.0
  0
LINE
  5
10D
  8
DATA
  6
CONTINUOUS
 62
     7
 10
-47.029999999999973
 20
-19.317
 30
0.0
 11
-52.97000000000002
 21
-19.99199999999999
 31
0.0
  0
LINE
  5
10E
  8
DATA
  6
CONTINUOUS
 62
     7
 10
-47.029999999999973
 20
-19.317
 30
0.0
 11
-52.97000000000002
 21
-19.99199999999999
 31
0.0
  0
LINE
  5
10F
  8
DATA
  6
CONTINUOUS
 62
     7
 10
-47.029999999999973
 20
-17.832000000000001
 30
0.0
 11
-52.97000000000002
 21
-18.50699999999998
 31
0.0
  0
LINE
  5
110
  8
DATA
  6
CONTINUOUS
 62
     7
 10
-47.029999999999973
 20
-17.337
 30
0.0
 11
-52.97000000000002
 21
-18.011999999999979
 31
0.0
  0
LINE
  5
111
  8
DATA
  6
CONTINUOUS
 62
     7
 10
-47.029999999999973
 20
-17.337
 30
0.0
 11
-52.97000000000002
 21
-18.011999999999979
 31
0.0
  0
LINE
  5
112
  8
DATA
  6
CONTINUOUS
 62
     7
 10
-47.029999999999973
 20
-15.852
 30
0.0
 11
-52.97000000000002
 21
-16.52699999999998
 31
0.0
  0
LINE
  5
113
  8
DATA
  6
CONTINUOUS
 62
     7
 10
-47.029999999999973
 20
-15.356999999999999
 30
0.0
 11
-52.97000000000002
 21
-16.031999999999989
 31
0.0
  0
LINE
  5
114
  8
DATA
  6
CONTINUOUS
 62
     7
 10
-47.029999999999973
 20
-15.356999999999999
 30
0.0
 11
-52.97000000000002
 21
-16.031999999999989
 31
0.0
  0
LINE
  5
115
  8
DATA
  6
CONTINUOUS
 62
     7
 10
-47.029999999999973
 20
-13.872
 30
0.0
 11
-52.97000000000002
 21
-14.54699999999999
 31
0.0
  0
LINE
  5
116
  8
DATA
  6
CONTINUOUS
 62
     7
 10
-47.029999999999973
 20
-13.377000000000001
 30
0.0
 11
-52.97000000000002
 21
-14.05199999999998
 31
0.0
  0
LINE
  5
117
  8
DATA
  6
CONTINUOUS
 62
     7
 10
-47.029999999999973
 20
-13.377000000000001
 30
0.0
 11
-52.97000000000002
 21
-14.05199999999998
 31
0.0
  0
LINE
  5
118
  8
DATA
  6
CONTINUOUS
 62
     7
 10
-47.029999999999973
 20
-11.891999999999999
 30
0.0
 11
-52.97000000000002
 21
-12.566999999999981
 31
0.0
  0
LINE
  5
119
  8
DATA
  6
CONTINUOUS
 62
     7
 10
-47.029999999999973
 20
-11.397
 30
0.0
 11
-52.97000000000002
 21
-12.07199999999999
 31
0.0
  0
LINE
  5
11A
  8
DATA
  6
CONTINUOUS
 62
     7
 10
-47.029999999999973
 20
-11.397
 30
0.0
 11
-52.97000000000002
 21
-12.07199999999999
 31
0.0
  0
LINE
  5
11B
  8
DATA
  6
CONTINUOUS
 62
     7
 10
-47.029999999999973
 20
-9.9120000000000008
 30
0.0
 11
-52.97000000000002
 21
-10.586999999999991
 31
0.0
  0
LINE
  5
11C
  8
DATA
  6
CONTINUOUS
 62
     7
 10
-47.029999999999973
 20
-9.4169999999999998
 30
0.0
 11
-52.97000000000002
 21
-10.091999999999979
 31
0.0
  0
LINE
  5
11D
  8
DATA
  6
CONTINUOUS
 62
     7
 10
-47.029999999999973
 20
-9.4169999999999998
 30
0.0
 11
-52.97000000000002
 21
-10.091999999999979
 31
0.0
  0
LINE
  5
11E
  8
DATA
  6
CONTINUOUS
 62
     7
 10
-47.029999999999973
 20
-7.9320000000000013
 30
0.0
 11
-52.97000000000002
 21
-8.6069999999999851
 31
0.0
  0
LINE
  5
11F
  8
DATA
  6
CONTINUOUS
 62
     7
 10
-47.029999999999973
 20
-7.4369999999999958
 30
0.0
 11
-52.97000000000002
 21
-8.1119999999999877
 31
0.0
  0
LINE
  5
120
  8
DATA
  6
CONTINUOUS
 62
     7
 10
-47.029999999999973
 20
-7.4369999999999958
 30
0.0
 11
-52.97000000000002
 21
-8.1119999999999877
 31
0.0
  0
LINE
  5
121
  8
DATA
  6
CONTINUOUS
 62
     7
 10
-47.029999999999973
 20
-5.9519999999999982
 30
0.0
 11
-52.97000000000002
 21
-6.6269999999999882
 31
0.0
  0
LINE
  5
122
  8
DATA
  6
CONTINUOUS
 62
     7
 10
-47.029999999999973
 20
-5.4569999999999999
 30
0.0
 11
-52.97000000000002
 21
-6.1319999999999828
 31
0.0
  0
LINE
  5
123
  8
DATA
  6
CONTINUOUS
 62
     7
 10
-47.029999999999973
 20
-5.4569999999999999
 30
0.0
 11
-52.97000000000002
 21
-6.1319999999999828
 31
0.0
  0
LINE
  5
124
  8
DATA
  6
CONTINUOUS
 62
     7
 10
-47.029999999999973
 20
-3.972
 30
0.0
 11
-52.97000000000002
 21
-4.6469999999999843
 31
0.0
  0
LINE
  5
125
  8
DATA
  6
CONTINUOUS
 62
     7
 10
-47.029999999999973
 20
-3.4769999999999959
 30
0.0
 11
-52.97000000000002
 21
-4.1519999999999859
 31
0.0
  0
LINE
  5
126
  8
DATA
  6
CONTINUOUS
 62
     7
 10
-47.029999999999973
 20
-3.4769999999999959
 30
0.0
 11
-52.97000000000002
 21
-4.1519999999999859
 31
0.0
  0
LINE
  5
127
  8
DATA
  6
CONTINUOUS
 62
     7
 10
-47.029999999999973
 20
-1.9919999999999971
 30
0.0
 11
-52.97000000000002
 21
-2.6669999999999869
 31
0.0
  0
LINE
  5
128
  8
DATA
  6
CONTINUOUS
 62
     7
 10
-47.029999999999973
 20
-1.4970000000000001
 30
0.0
 11
-52.97000000000002
 21
-2.1719999999999891
 31
0.0
  0
LINE
  5
129
  8
DATA
  6
CONTINUOUS
 62
     7
 10
-47.029999999999973
 20
-1.4970000000000001
 30
0.0
 11
-52.97000000000002
 21
-2.1719999999999891
 31
0.0
  0
LINE
  5
12A
  8
DATA
  6
CONTINUOUS
 62
     7
 10
-47.029999999999973
 20
-0.0120000000000005
 30
0.0
 11
-52.97000000000002
 21
-0.6869999999999905
 31
0.0
  0
LINE
  5
12B
  8
DATA
  6
CONTINUOUS
 62
     7
 10
-47.029999999999973
 20
0.4829999999999971
 30
0.0
 11
-52.97000000000002
 21
-0.1919999999999931
 31
0.0
  0
LINE
  5
12C
  8
DATA
  6
CONTINUOUS
 62
     7
 10
-47.029999999999973
 20
0.4829999999999971
 30
0.0
 11
-52.97000000000002
 21
-0.1919999999999931
 31
0.0
  0
LINE
  5
12D
  8
DATA
  6
CONTINUOUS
 62
     7
 10
-47.029999999999973
 20
1.967999999999996
 30
0.0
 11
-52.97000000000002
 21
1.2930000000000059
 31
0.0
  0
LINE
  5
12E
  8
DATA
  6
CONTINUOUS
 62
     7
 10
-47.029999999999973
 20
2.4630000000000001
 30
0.0
 11
-52.97000000000002
 21
1.7880000000000029
 31
0.0
  0
LINE
  5
12F
  8
DATA
  6
CONTINUOUS
 62
     7
 10
-47.029999999999973
 20
2.4630000000000001
 30
0.0
 11
-52.97000000000002
 21
1.7880000000000029
 31
0.0
  0
LINE
  5
130
  8
DATA
  6
CONTINUOUS
 62
     7
 10
-47.029999999999973
 20
3.948
 30
0.0
 11
-52.97000000000002
 21
3.2730000000000099
 31
0.0
  0
LINE
  5
131
  8
DATA
  6
CONTINUOUS
 62
     7
 10
-47.029999999999973
 20
4.4430000000000041
 30
0.0
 11
-52.97000000000002
 21
3.7680000000000069
 31
0.0
  0
LINE
  5
132
  8
DATA
  6
CONTINUOUS
 62
     7
 10
-47.029999999999973
 20
4.4430000000000041
 30
0.0
 11
-52.97000000000002
 21
3.7680000000000069
 31
0.0
  0
LINE
  5
133
  8
DATA
  6
CONTINUOUS
 62
     7
 10
-47.029999999999973
 20
5.9280000000000044
 30
0.0
 11
-52.97000000000002
 21
5.2530000000000072
 31
0.0
  0
LINE
  5
134
  8
DATA
  6
CONTINUOUS
 62
     7
 10
-47.029999999999973
 20
6.4229999999999938
 30
0.0
 11
-52.97000000000002
 21
5.7480000000000109
 31
0.0
  0
LINE
  5
135
  8
DATA
  6
CONTINUOUS
 62
     7
 10
-47.029999999999973
 20
6.4229999999999938
 30
0.0
 11
-52.97000000000002
 21
5.7480000000000109
 31
0.0
  0
LINE
  5
136
  8
DATA
  6
CONTINUOUS
 62
     7
 10
-47.029999999999973
 20
7.9080000000000084
 30
0.0
 11
-52.97000000000002
 21
7.2330000000000112
 31
0.0
  0
LINE
  5
137
  8
DATA
  6
CONTINUOUS
 62
     7
 10
-47.029999999999973
 20
8.4029999999999987
 30
0.0
 11
-52.97000000000002
 21
7.7280000000000006
 31
0.0
  0
LINE
  5
138
  8
DATA
  6
CONTINUOUS
 62
     7
 10
-47.029999999999973
 20
8.4029999999999987
 30
0.0
 11
-52.97000000000002
 21
7.7280000000000006
 31
0.0
  0
LINE
  5
139
  8
DATA
  6
CONTINUOUS
 62
     7
 10
-47.029999999999973
 20
9.8879999999999981
 30
0.0
 11
-52.97000000000002
 21
9.2130000000000152
 31
0.0
  0
LINE
  5
13A
  8
DATA
  6
CONTINUOUS
 62
     7
 10
-47.029999999999973
 20
10.382999999999999
 30
0.0
 11
-52.97000000000002
 21
9.7080000000000037
 31
0.0
  0
LINE
  5
13B
  8
DATA
  6
CONTINUOUS
 62
     7
 10
-47.029999999999973
 20
10.382999999999999
 30
0.0
 11
-52.97000000000002
 21
9.7080000000000037
 31
0.0
  0
LINE
  5
13C
  8
DATA
  6
CONTINUOUS
 62
     7
 10
-47.029999999999973
 20
11.868
 30
0.0
 11
-52.97000000000002
 21
11.193
 31
0.0
  0
LINE
  5
13D
  8
DATA
  6
CONTINUOUS
 62
     7
 10
-47.029999999999973
 20
12.362999999999991
 30
0.0
 11
-52.97000000000002
 21
11.688000000000001
 31
0.0
  0
LINE
  5
13E
  8
DATA
  6
CONTINUOUS
 62
     7
 10
-47.029999999999973
 20
12.362999999999991
 30
0.0
 11
-52.97000000000002
 21
11.688000000000001
 31
0.0
  0
LINE
  5
13F
  8
DATA
  6
CONTINUOUS
 62
     7
 10
-47.029999999999973
 20
13.848000000000001
 30
0.0
 11
-52.97000000000002
 21
13.173000000000011
 31
0.0
  0
LINE
  5
140
  8
DATA
  6
CONTINUOUS
 62
     7
 10
-47.029999999999973
 20
14.342999999999989
 30
0.0
 11
-52.97000000000002
 21
13.66800000000001
 31
0.0
  0
LINE
  5
141
  8
DATA
  6
CONTINUOUS
 62
     7
 10
-47.029999999999973
 20
14.342999999999989
 30
0.0
 11
-52.97000000000002
 21
13.66800000000001
 31
0.0
  0
LINE
  5
142
  8
DATA
  6
CONTINUOUS
 62
     7
 10
-47.029999999999973
 20
15.827999999999991
 30
0.0
 11
-52.97000000000002
 21
15.153000000000009
 31
0.0
  0
LINE
  5
143
  8
DATA
  6
CONTINUOUS
 62
     7
 10
-47.029999999999973
 20
16.323
 30
0.0
 11
-52.97000000000002
 21
15.64800000000001
 31
0.0
  0
LINE
  5
144
  8
DATA
  6
CONTINUOUS
 62
     7
 10
-47.029999999999973
 20
16.323
 30
0.0
 11
-52.97000000000002
 21
15.64800000000001
 31
0.0
  0
LINE
  5
145
  8
DATA
  6
CONTINUOUS
 62
     7
 10
-47.029999999999973
 20
17.808
 30
0.0
 11
-52.97000000000002
 21
17.132999999999999
 31
0.0
  0
LINE
  5
146
  8
DATA
  6
CONTINUOUS
 62
     7
 10
-47.029999999999973
 20
18.30299999999999
 30
0.0
 11
-52.97000000000002
 21
17.628000000000011
 31
0.0
  0
LINE
  5
147
  8
DATA
  6
CONTINUOUS
 62
     7
 10
-47.029999999999973
 20
-19.317
 30
0.0
 11
-52.97000000000002
 21
-19.99199999999999
 31
0.0
  0
LINE
  5
148
  8
DATA
  6
CONTINUOUS
 62
     7
 10
-47.029999999999973
 20
-17.832000000000001
 30
0.0
 11
-52.97000000000002
 21
-18.50699999999998
 31
0.0
  0
LINE
  5
149
  8
DATA
  6
CONTINUOUS
 62
     7
 10
-47.029999999999973
 20
-17.337
 30
0.0
 11
-52.97000000000002
 21
-18.011999999999979
 31
0.0
  0
LINE
  5
14A
  8
DATA
  6
CONTINUOUS
 62
     7
 10
-47.029999999999973
 20
-17.337
 30
0.0
 11
-52.97000000000002
 21
-18.011999999999979
 31
0.0
  0
LINE
  5
14B
  8
DATA
  6
CONTINUOUS
 62
     7
 10
-47.029999999999973
 20
-15.852
 30
0.0
 11
-52.97000000000002
 21
-16.52699999999998
 31
0.0
  0
LINE
  5
14C
  8
DATA
  6
CONTINUOUS
 62
     7
 10
-47.029999999999973
 20
-15.356999999999999
 30
0.0
 11
-52.97000000000002
 21
-16.031999999999989
 31
0.0
  0
LINE
  5
14D
  8
DATA
  6
CONTINUOUS
 62
     7
 10
-47.029999999999973
 20
-15.356999999999999
 30
0.0
 11
-52.97000000000002
 21
-16.031999999999989
 31
0.0
  0
LINE
  5
14E
  8
DATA
  6
CONTINUOUS
 62
     7
 10
-47.029999999999973
 20
-13.872
 30
0.0
 11
-52.97000000000002
 21
-14.54699999999999
 31
0.0
  0
LINE
  5
14F
  8
DATA
  6
CONTINUOUS
 62
     7
 10
-47.029999999999973
 20
-13.377000000000001
 30
0.0
 11
-52.97000000000002
 21
-14.05199999999998
 31
0.0
  0
LINE
  5
150
  8
DATA
  6
CONTINUOUS
 62
     7
 10
-47.029999999999973
 20
-13.377000000000001
 30
0.0
 11
-52.97000000000002
 21
-14.05199999999998
 31
0.0
  0
LINE
  5
151
  8
DATA
  6
CONTINUOUS
 62
     7
 10
-47.029999999999973
 20
-11.891999999999999
 30
0.0
 11
-52.97000000000002
 21
-12.566999999999981
 31
0.0
  0
LINE
  5
152
  8
DATA
  6
CONTINUOUS
 62
     7
 10
-47.029999999999973
 20
-11.397
 30
0.0
 11
-52.97000000000002
 21
-12.07199999999999
 31
0.0
  0
LINE
  5
153
  8
DATA
  6
CONTINUOUS
 62
     7
 10
-47.029999999999973
 20
-11.397
 30
0.0
 11
-52.97000000000002
 21
-12.07199999999999
 31
0.0
  0
LINE
  5
154
  8
DATA
  6
CONTINUOUS
 62
     7
 10
-47.029999999999973
 20
-9.9120000000000008
 30
0.0
 11
-52.97000000000002
 21
-10.586999999999991
 31
0.0
  0
LINE
  5
155
  8
DATA
  6
CONTINUOUS
 62
     7
 10
-47.029999999999973
 20
-9.4169999999999998
 30
0.0
 11
-52.97000000000002
 21
-10.091999999999979
 31
0.0
  0
LINE
  5
156
  8
DATA
  6
CONTINUOUS
 62
     7
 10
-47.029999999999973
 20
-9.4169999999999998
 30
0.0
 11
-52.97000000000002
 21
-10.091999999999979
 31
0.0
  0
LINE
  5
157
  8
DATA
  6
CONTINUOUS
 62
     7
 10
-47.029999999999973
 20
-7.9320000000000013
 30
0.0
 11
-52.97000000000002
 21
-8.6069999999999851
 31
0.0
  0
LINE
  5
158
  8
DATA
  6
CONTINUOUS
 62
     7
 10
-47.029999999999973
 20
-7.4369999999999958
 30
0.0
 11
-52.97000000000002
 21
-8.1119999999999877
 31
0.0
  0
LINE
  5
159
  8
DATA
  6
CONTINUOUS
 62
     7
 10
-47.029999999999973
 20
-7.4369999999999958
 30
0.0
 11
-52.97000000000002
 21
-8.1119999999999877
 31
0.0
  0
LINE
  5
15A
  8
DATA
  6
CONTINUOUS
 62
     7
 10
-47.029999999999973
 20
-5.9519999999999982
 30
0.0
 11
-52.97000000000002
 21
-6.6269999999999882
 31
0.0
  0
LINE
  5
15B
  8
DATA
  6
CONTINUOUS
 62
     7
 10
-47.029999999999973
 20
-5.4569999999999999
 30
0.0
 11
-52.97000000000002
 21
-6.1319999999999828
 31
0.0
  0
LINE
  5
15C
  8
DATA
  6
CONTINUOUS
 62
     7
 10
-47.029999999999973
 20
-5.4569999999999999
 30
0.0
 11
-52.97000000000002
 21
-6.1319999999999828
 31
0.0
  0
LINE
  5
15D
  8
DATA
  6
CONTINUOUS
 62
     7
 10
-47.029999999999973
 20
-3.972
 30
0.0
 11
-52.97000000000002
 21
-4.6469999999999843
 31
0.0
  0
LINE
  5
15E
  8
DATA
  6
CONTINUOUS
 62
     7
 10
-47.029999999999973
 20
-3.4769999999999959
 30
0.0
 11
-52.97000000000002
 21
-4.1519999999999859
 31
0.0
  0
LINE
  5
15F
  8
DATA
  6
CONTINUOUS
 62
     7
 10
-47.029999999999973
 20
-3.4769999999999959
 30
0.0
 11
-52.97000000000002
 21
-4.1519999999999859
 31
0.0
  0
LINE
  5
160
  8
DATA
  6
CONTINUOUS
 62
     7
 10
-47.029999999999973
 20
-1.9919999999999971
 30
0.0
 11
-52.97000000000002
 21
-2.6669999999999869
 31
0.0
  0
LINE
  5
161
  8
DATA
  6
CONTINUOUS
 62
     7
 10
-47.029999999999973
 20
-1.4970000000000001
 30
0.0
 11
-52.97000000000002
 21
-2.1719999999999891
 31
0.0
  0
LINE
  5
162
  8
DATA
  6
CONTINUOUS
 62
     7
 10
-47.029999999999973
 20
-1.4970000000000001
 30
0.0
 11
-52.97000000000002
 21
-2.1719999999999891
 31
0.0
  0
LINE
  5
163
  8
DATA
  6
CONTINUOUS
 62
     7
 10
-47.029999999999973
 20
-0.0120000000000005
 30
0.0
 11
-52.97000000000002
 21
-0.6869999999999905
 31
0.0
  0
LINE
  5
164
  8
DATA
  6
CONTINUOUS
 62
     7
 10
-47.029999999999973
 20
0.4829999999999971
 30
0.0
 11
-52.97000000000002
 21
-0.1919999999999931
 31
0.0
  0
LINE
  5
165
  8
DATA
  6
CONTINUOUS
 62
     7
 10
-47.029999999999973
 20
0.4829999999999971
 30
0.0
 11
-52.97000000000002
 21
-0.1919999999999931
 31
0.0
  0
LINE
  5
166
  8
DATA
  6
CONTINUOUS
 62
     7
 10
-47.029999999999973
 20
1.967999999999996
 30
0.0
 11
-52.97000000000002
 21
1.2930000000000059
 31
0.0
  0
LINE
  5
167
  8
DATA
  6
CONTINUOUS
 62
     7
 10
-47.029999999999973
 20
2.4630000000000001
 30
0.0
 11
-52.97000000000002
 21
1.7880000000000029
 31
0.0
  0
LINE
  5
168
  8
DATA
  6
CONTINUOUS
 62
     7
 10
-47.029999999999973
 20
2.4630000000000001
 30
0.0
 11
-52.97000000000002
 21
1.7880000000000029
 31
0.0
  0
LINE
  5
169
  8
DATA
  6
CONTINUOUS
 62
     7
 10
-47.029999999999973
 20
3.948
 30
0.0
 11
-52.97000000000002
 21
3.2730000000000099
 31
0.0
  0
LINE
  5
16A
  8
DATA
  6
CONTINUOUS
 62
     7
 10
-47.029999999999973
 20
4.4430000000000041
 30
0.0
 11
-52.97000000000002
 21
3.7680000000000069
 31
0.0
  0
LINE
  5
16B
  8
DATA
  6
CONTINUOUS
 62
     7
 10
-47.029999999999973
 20
4.4430000000000041
 30
0.0
 11
-52.97000000000002
 21
3.7680000000000069
 31
0.0
  0
LINE
  5
16C
  8
DATA
  6
CONTINUOUS
 62
     7
 10
-47.029999999999973
 20
5.9280000000000044
 30
0.0
 11
-52.97000000000002
 21
5.2530000000000072
 31
0.0
  0
LINE
  5
16D
  8
DATA
  6
CONTINUOUS
 62
     7
 10
-47.029999999999973
 20
6.4229999999999938
 30
0.0
 11
-52.97000000000002
 21
5.7480000000000109
 31
0.0
  0
LINE
  5
16E
  8
DATA
  6
CONTINUOUS
 62
     7
 10
-47.029999999999973
 20
6.4229999999999938
 30
0.0
 11
-52.97000000000002
 21
5.7480000000000109
 31
0.0
  0
LINE
  5
16F
  8
DATA
  6
CONTINUOUS
 62
     7
 10
-47.029999999999973
 20
7.9080000000000084
 30
0.0
 11
-52.97000000000002
 21
7.2330000000000112
 31
0.0
  0
LINE
  5
170
  8
DATA
  6
CONTINUOUS
 62
     7
 10
-47.029999999999973
 20
8.4029999999999987
 30
0.0
 11
-52.97000000000002
 21
7.7280000000000006
 31
0.0
  0
LINE
  5
171
  8
DATA
  6
CONTINUOUS
 62
     7
 10
-47.029999999999973
 20
8.4029999999999987
 30
0.0
 11
-52.97000000000002
 21
7.7280000000000006
 31
0.0
  0
LINE
  5
172
  8
DATA
  6
CONTINUOUS
 62
     7
 10
-47.029999999999973
 20
9.8879999999999981
 30
0.0
 11
-52.97000000000002
 21
9.2130000000000152
 31
0.0
  0
LINE
  5
173
  8
DATA
  6
CONTINUOUS
 62
     7
 10
-47.029999999999973
 20
10.382999999999999
 30
0.0
 11
-52.97000000000002
 21
9.7080000000000037
 31
0.0
  0
LINE
  5
174
  8
DATA
  6
CONTINUOUS
 62
     7
 10
-47.029999999999973
 20
10.382999999999999
 30
0.0
 11
-52.97000000000002
 21
9.7080000000000037
 31
0.0
  0
LINE
  5
175
  8
DATA
  6
CONTINUOUS
 62
     7
 10
-47.029999999999973
 20
11.868
 30
0.0
 11
-52.97000000000002
 21
11.193
 31
0.0
  0
LINE
  5
176
  8
DATA
  6
CONTINUOUS
 62
     7
 10
-47.029999999999973
 20
12.362999999999991
 30
0.0
 11
-52.97000000000002
 21
11.688000000000001
 31
0.0
  0
LINE
  5
177
  8
DATA
  6
CONTINUOUS
 62
     7
 10
-47.029999999999973
 20
12.362999999999991
 30
0.0
 11
-52.97000000000002
 21
11.688000000000001
 31
0.0
  0
LINE
  5
178
  8
DATA
  6
CONTINUOUS
 62
     7
 10
-47.029999999999973
 20
13.848000000000001
 30
0.0
 11
-52.97000000000002
 21
13.173000000000011
 31
0.0
  0
LINE
  5
179
  8
DATA
  6
CONTINUOUS
 62
     7
 10
-47.029999999999973
 20
14.342999999999989
 30
0.0
 11
-52.97000000000002
 21
13.66800000000001
 31
0.0
  0
LINE
  5
17A
  8
DATA
  6
CONTINUOUS
 62
     7
 10
-47.029999999999973
 20
14.342999999999989
 30
0.0
 11
-52.97000000000002
 21
13.66800000000001
 31
0.0
  0
LINE
  5
17B
  8
DATA
  6
CONTINUOUS
 62
     7
 10
-47.029999999999973
 20
15.827999999999991
 30
0.0
 11
-52.97000000000002
 21
15.153000000000009
 31
0.0
  0
LINE
  5
17C
  8
DATA
  6
CONTINUOUS
 62
     7
 10
-47.029999999999973
 20
16.323
 30
0.0
 11
-52.97000000000002
 21
15.64800000000001
 31
0.0
  0
LINE
  5
17D
  8
DATA
  6
CONTINUOUS
 62
     7
 10
-47.029999999999973
 20
16.323
 30
0.0
 11
-52.97000000000002
 21
15.64800000000001
 31
0.0
  0
LINE
  5
17E
  8
DATA
  6
CONTINUOUS
 62
     7
 10
-47.029999999999973
 20
17.808
 30
0.0
 11
-52.97000000000002
 21
17.132999999999999
 31
0.0
  0
LINE
  5
17F
  8
DATA
  6
CONTINUOUS
 62
     7
 10
-47.029999999999973
 20
18.30299999999999
 30
0.0
 11
-52.97000000000002
 21
17.628000000000011
 31
0.0
  0
LINE
  5
180
  8
DATA
  6
CONTINUOUS
 62
     7
 10
-47.029999999999973
 20
18.30299999999999
 30
0.0
 11
-52.97000000000002
 21
17.628000000000011
 31
0.0
  0
LINE
  5
181
  8
DATA
  6
CONTINUOUS
 62
     7
 10
-47.029999999999973
 20
19.788
 30
0.0
 11
-52.97000000000002
 21
19.113
 31
0.0
  0
LINE
  5
182
  8
DATA
  6
CONTINUOUS
 62
     7
 10
-47.029999999999973
 20
20.283000000000008
 30
0.0
 11
-52.97000000000002
 21
19.608000000000001
 31
0.0
  0
LINE
  5
183
  8
DATA
  6
CONTINUOUS
 62
     7
 10
-47.029999999999973
 20
-17.337
 30
0.0
 11
-52.97000000000002
 21
-18.011999999999979
 31
0.0
  0
LINE
  5
184
  8
DATA
  6
CONTINUOUS
 62
     7
 10
-47.029999999999973
 20
-15.852
 30
0.0
 11
-52.97000000000002
 21
-16.52699999999998
 31
0.0
  0
LINE
  5
185
  8
DATA
  6
CONTINUOUS
 62
     7
 10
-47.029999999999973
 20
-15.356999999999999
 30
0.0
 11
-52.97000000000002
 21
-16.031999999999989
 31
0.0
  0
LINE
  5
186
  8
DATA
  6
CONTINUOUS
 62
     7
 10
-47.029999999999973
 20
-15.356999999999999
 30
0.0
 11
-52.97000000000002
 21
-16.031999999999989
 31
0.0
  0
LINE
  5
187
  8
DATA
  6
CONTINUOUS
 62
     7
 10
-47.029999999999973
 20
-13.872
 30
0.0
 11
-52.97000000000002
 21
-14.54699999999999
 31
0.0
  0
LINE
  5
188
  8
DATA
  6
CONTINUOUS
 62
     7
 10
-47.029999999999973
 20
-13.377000000000001
 30
0.0
 11
-52.97000000000002
 21
-14.05199999999998
 31
0.0
  0
LINE
  5
189
  8
DATA
  6
CONTINUOUS
 62
     7
 10
-47.029999999999973
 20
-13.377000000000001
 30
0.0
 11
-52.97000000000002
 21
-14.05199999999998
 31
0.0
  0
LINE
  5
18A
  8
DATA
  6
CONTINUOUS
 62
     7
 10
-47.029999999999973
 20
-11.891999999999999
 30
0.0
 11
-52.97000000000002
 21
-12.566999999999981
 31
0.0
  0
LINE
  5
18B
  8
DATA
  6
CONTINUOUS
 62
     7
 10
-47.029999999999973
 20
-11.397
 30
0.0
 11
-52.97000000000002
 21
-12.07199999999999
 31
0.0
  0
LINE
  5
18C
  8
DATA
  6
CONTINUOUS
 62
     7
 10
-47.029999999999973
 20
-11.397
 30
0.0
 11
-52.97000000000002
 21
-12.07199999999999
 31
0.0
  0
LINE
  5
18D
  8
DATA
  6
CONTINUOUS
 62
     7
 10
-47.029999999999973
 20
-9.9120000000000008
 30
0.0
 11
-52.97000000000002
 21
-10.586999999999991
 31
0.0
  0
LINE
  5
18E
  8
DATA
  6
CONTINUOUS
 62
     7
 10
-47.029999999999973
 20
-9.4169999999999998
 30
0.0
 11
-52.97000000000002
 21
-10.091999999999979
 31
0.0
  0
LINE
  5
18F
  8
DATA
  6
CONTINUOUS
 62
     7
 10
-47.029999999999973
 20
-9.4169999999999998
 30
0.0
 11
-52.97000000000002
 21
-10.091999999999979
 31
0.0
  0
LINE
  5
190
  8
DATA
  6
CONTINUOUS
 62
     7
 10
-47.029999999999973
 20
-7.9320000000000013
 30
0.0
 11
-52.97000000000002
 21
-8.6069999999999851
 31
0.0
  0
LINE
  5
191
  8
DATA
  6
CONTINUOUS
 62
     7
 10
-47.029999999999973
 20
-7.4369999999999958
 30
0.0
 11
-52.97000000000002
 21
-8.1119999999999877
 31
0.0
  0
LINE
  5
192
  8
DATA
  6
CONTINUOUS
 62
     7
 10
-47.029999999999973
 20
-7.4369999999999958
 30
0.0
 11
-52.97000000000002
 21
-8.1119999999999877
 31
0.0
  0
LINE
  5
193
  8
DATA
  6
CONTINUOUS
 62
     7
 10
-47.029999999999973
 20
-5.9519999999999982
 30
0.0
 11
-52.97000000000002
 21
-6.6269999999999882
 31
0.0
  0
LINE
  5
194
  8
DATA
  6
CONTINUOUS
 62
     7
 10
-47.029999999999973
 20
-5.4569999999999999
 30
0.0
 11
-52.97000000000002
 21
-6.1319999999999828
 31
0.0
  0
LINE
  5
195
  8
DATA
  6
CONTINUOUS
 62
     7
 10
-47.029999999999973
 20
-5.4569999999999999
 30
0.0
 11
-52.97000000000002
 21
-6.1319999999999828
 31
0.0
  0
LINE
  5
196
  8
DATA
  6
CONTINUOUS
 62
     7
 10
-47.029999999999973
 20
-3.972
 30
0.0
 11
-52.97000000000002
 21
-4.6469999999999843
 31
0.0
  0
LINE
  5
197
  8
DATA
  6
CONTINUOUS
 62
     7
 10
-47.029999999999973
 20
-3.4769999999999959
 30
0.0
 11
-52.97000000000002
 21
-4.1519999999999859
 31
0.0
  0
LINE
  5
198
  8
DATA
  6
CONTINUOUS
 62
     7
 10
-47.029999999999973
 20
-3.4769999999999959
 30
0.0
 11
-52.97000000000002
 21
-4.1519999999999859
 31
0.0
  0
LINE
  5
199
  8
DATA
  6
CONTINUOUS
 62
     7
 10
-47.029999999999973
 20
-1.9919999999999971
 30
0.0
 11
-52.97000000000002
 21
-2.6669999999999869
 31
0.0
  0
LINE
  5
19A
  8
DATA
  6
CONTINUOUS
 62
     7
 10
-47.029999999999973
 20
-1.4970000000000001
 30
0.0
 11
-52.97000000000002
 21
-2.1719999999999891
 31
0.0
  0
LINE
  5
19B
  8
DATA
  6
CONTINUOUS
 62
     7
 10
-47.029999999999973
 20
-1.4970000000000001
 30
0.0
 11
-52.97000000000002
 21
-2.1719999999999891
 31
0.0
  0
LINE
  5
19C
  8
DATA
  6
CONTINUOUS
 62
     7
 10
-47.029999999999973
 20
-0.0120000000000005
 30
0.0
 11
-52.97000000000002
 21
-0.6869999999999905
 31
0.0
  0
LINE
  5
19D
  8
DATA
  6
CONTINUOUS
 62
     7
 10
-47.029999999999973
 20
0.4829999999999971
 30
0.0
 11
-52.97000000000002
 21
-0.1919999999999931
 31
0.0
  0
LINE
  5
19E
  8
DATA
  6
CONTINUOUS
 62
     7
 10
-47.029999999999973
 20
0.4829999999999971
 30
0.0
 11
-52.97000000000002
 21
-0.1919999999999931
 31
0.0
  0
LINE
  5
19F
  8
DATA
  6
CONTINUOUS
 62
     7
 10
-47.029999999999973
 20
1.967999999999996
 30
0.0
 11
-52.97000000000002
 21
1.2930000000000059
 31
0.0
  0
LINE
  5
1A0
  8
DATA
  6
CONTINUOUS
 62
     7
 10
-47.029999999999973
 20
2.4630000000000001
 30
0.0
 11
-52.97000000000002
 21
1.7880000000000029
 31
0.0
  0
LINE
  5
1A1
  8
DATA
  6
CONTINUOUS
 62
     7
 10
-47.029999999999973
 20
2.4630000000000001
 30
0.0
 11
-52.97000000000002
 21
1.7880000000000029
 31
0.0
  0
LINE
  5
1A2
  8
DATA
  6
CONTINUOUS
 62
     7
 10
-47.029999999999973
 20
3.948
 30
0.0
 11
-52.97000000000002
 21
3.2730000000000099
 31
0.0
  0
LINE
  5
1A3
  8
DATA
  6
CONTINUOUS
 62
     7
 10
-47.029999999999973
 20
4.4430000000000041
 30
0.0
 11
-52.97000000000002
 21
3.7680000000000069
 31
0.0
  0
LINE
  5
1A4
  8
DATA
  6
CONTINUOUS
 62
     7
 10
-47.029999999999973
 20
4.4430000000000041
 30
0.0
 11
-52.97000000000002
 21
3.7680000000000069
 31
0.0
  0
LINE
  5
1A5
  8
DATA
  6
CONTINUOUS
 62
     7
 10
-47.029999999999973
 20
5.9280000000000044
 30
0.0
 11
-52.97000000000002
 21
5.2530000000000072
 31
0.0
  0
LINE
  5
1A6
  8
DATA
  6
CONTINUOUS
 62
     7
 10
-47.029999999999973
 20
6.4229999999999938
 30
0.0
 11
-52.97000000000002
 21
5.7480000000000109
 31
0.0
  0
LINE
  5
1A7
  8
DATA
  6
CONTINUOUS
 62
     7
 10
-47.029999999999973
 20
6.4229999999999938
 30
0.0
 11
-52.97000000000002
 21
5.7480000000000109
 31
0.0
  0
LINE
  5
1A8
  8
DATA
  6
CONTINUOUS
 62
     7
 10
-47.029999999999973
 20
7.9080000000000084
 30
0.0
 11
-52.97000000000002
 21
7.2330000000000112
 31
0.0
  0
LINE
  5
1A9
  8
DATA
  6
CONTINUOUS
 62
     7
 10
-47.029999999999973
 20
8.4029999999999987
 30
0.0
 11
-52.97000000000002
 21
7.7280000000000006
 31
0.0
  0
LINE
  5
1AA
  8
DATA
  6
CONTINUOUS
 62
     7
 10
-47.029999999999973
 20
8.4029999999999987
 30
0.0
 11
-52.97000000000002
 21
7.7280000000000006
 31
0.0
  0
LINE
  5
1AB
  8
DATA
  6
CONTINUOUS
 62
     7
 10
-47.029999999999973
 20
9.8879999999999981
 30
0.0
 11
-52.97000000000002
 21
9.2130000000000152
 31
0.0
  0
LINE
  5
1AC
  8
DATA
  6
CONTINUOUS
 62
     7
 10
-47.029999999999973
 20
10.382999999999999
 30
0.0
 11
-52.97000000000002
 21
9.7080000000000037
 31
0.0
  0
LINE
  5
1AD
  8
DATA
  6
CONTINUOUS
 62
     7
 10
-47.029999999999973
 20
10.382999999999999
 30
0.0
 11
-52.97000000000002
 21
9.7080000000000037
 31
0.0
  0
LINE
  5
1AE
  8
DATA
  6
CONTINUOUS
 62
     7
 10
-47.029999999999973
 20
11.868
 30
0.0
 11
-52.97000000000002
 21
11.193
 31
0.0
  0
LINE
  5
1AF
  8
DATA
  6
CONTINUOUS
 62
     7
 10
-47.029999999999973
 20
12.362999999999991
 30
0.0
 11
-52.97000000000002
 21
11.688000000000001
 31
0.0
  0
LINE
  5
1B0
  8
DATA
  6
CONTINUOUS
 62
     7
 10
-47.029999999999973
 20
12.362999999999991
 30
0.0
 11
-52.97000000000002
 21
11.688000000000001
 31
0.0
  0
LINE
  5
1B1
  8
DATA
  6
CONTINUOUS
 62
     7
 10
-47.029999999999973
 20
13.848000000000001
 30
0.0
 11
-52.97000000000002
 21
13.173000000000011
 31
0.0
  0
LINE
  5
1B2
  8
DATA
  6
CONTINUOUS
 62
     7
 10
-47.029999999999973
 20
14.342999999999989
 30
0.0
 11
-52.97000000000002
 21
13.66800000000001
 31
0.0
  0
LINE
  5
1B3
  8
DATA
  6
CONTINUOUS
 62
     7
 10
-47.029999999999973
 20
14.342999999999989
 30
0.0
 11
-52.97000000000002
 21
13.66800000000001
 31
0.0
  0
LINE
  5
1B4
  8
DATA
  6
CONTINUOUS
 62
     7
 10
-47.029999999999973
 20
15.827999999999991
 30
0.0
 11
-52.97000000000002
 21
15.153000000000009
 31
0.0
  0
LINE
  5
1B5
  8
DATA
  6
CONTINUOUS
 62
     7
 10
-47.029999999999973
 20
16.323
 30
0.0
 11
-52.97000000000002
 21
15.64800000000001
 31
0.0
  0
LINE
  5
1B6
  8
DATA
  6
CONTINUOUS
 62
     7
 10
-47.029999999999973
 20
16.323
 30
0.0
 11
-52.97000000000002
 21
15.64800000000001
 31
0.0
  0
LINE
  5
1B7
  8
DATA
  6
CONTINUOUS
 62
     7
 10
-47.029999999999973
 20
17.808
 30
0.0
 11
-52.97000000000002
 21
17.132999999999999
 31
0.0
  0
LINE
  5
1B8
  8
DATA
  6
CONTINUOUS
 62
     7
 10
-47.029999999999973
 20
18.30299999999999
 30
0.0
 11
-52.97000000000002
 21
17.628000000000011
 31
0.0
  0
LINE
  5
1B9
  8
DATA
  6
CONTINUOUS
 62
     7
 10
-47.029999999999973
 20
18.30299999999999
 30
0.0
 11
-52.97000000000002
 21
17.628000000000011
 31
0.0
  0
LINE
  5
1BA
  8
DATA
  6
CONTINUOUS
 62
     7
 10
-47.029999999999973
 20
19.788
 30
0.0
 11
-52.97000000000002
 21
19.113
 31
0.0
  0
LINE
  5
1BB
  8
DATA
  6
CONTINUOUS
 62
     7
 10
-47.029999999999973
 20
20.283000000000008
 30
0.0
 11
-52.97000000000002
 21
19.608000000000001
 31
0.0
  0
LINE
  5
1BC
  8
DATA
  6
CONTINUOUS
 62
     7
 10
-47.029999999999973
 20
20.283000000000008
 30
0.0
 11
-52.97000000000002
 21
19.608000000000001
 31
0.0
  0
LINE
  5
1BD
  8
DATA
  6
CONTINUOUS
 62
     7
 10
-47.029999999999973
 20
21.768000000000001
 30
0.0
 11
-52.97000000000002
 21
21.093000000000011
 31
0.0
  0
LINE
  5
1BE
  8
DATA
  6
CONTINUOUS
 62
     7
 10
-47.029999999999973
 20
22.263000000000002
 30
0.0
 11
-52.97000000000002
 21
21.588000000000012
 31
0.0
  0
LINE
  5
1BF
  8
DATA
  6
CONTINUOUS
 62
     7
 10
-47.029999999999973
 20
-15.356999999999999
 30
0.0
 11
-52.97000000000002
 21
-16.031999999999989
 31
0.0
  0
LINE
  5
1C0
  8
DATA
  6
CONTINUOUS
 62
     7
 10
-47.029999999999973
 20
-13.872
 30
0.0
 11
-52.97000000000002
 21
-14.54699999999999
 31
0.0
  0
LINE
  5
1C1
  8
DATA
  6
CONTINUOUS
 62
     7
 10
-47.029999999999973
 20
-13.377000000000001
 30
0.0
 11
-52.97000000000002
 21
-14.05199999999998
 31
0.0
  0
LINE
  5
1C2
  8
DATA
  6
CONTINUOUS
 62
     7
 10
-47.029999999999973
 20
-13.377000000000001
 30
0.0
 11
-52.97000000000002
 21
-14.05199999999998
 31
0.0
  0
LINE
  5
1C3
  8
DATA
  6
CONTINUOUS
 62
     7
 10
-47.029999999999973
 20
-11.891999999999999
 30
0.0
 11
-52.97000000000002
 21
-12.566999999999981
 31
0.0
  0
LINE
  5
1C4
  8
DATA
  6
CONTINUOUS
 62
     7
 10
-47.029999999999973
 20
-11.397
 30
0.0
 11
-52.97000000000002
 21
-12.07199999999999
 31
0.0
  0
LINE
  5
1C5
  8
DATA
  6
CONTINUOUS
 62
     7
 10
-47.029999999999973
 20
-11.397
 30
0.0
 11
-52.97000000000002
 21
-12.07199999999999
 31
0.0
  0
LINE
  5
1C6
  8
DATA
  6
CONTINUOUS
 62
     7
 10
-47.029999999999973
 20
-9.9120000000000008
 30
0.0
 11
-52.97000000000002
 21
-10.586999999999991
 31
0.0
  0
LINE
  5
1C7
  8
DATA
  6
CONTINUOUS
 62
     7
 10
-47.029999999999973
 20
-9.4169999999999998
 30
0.0
 11
-52.97000000000002
 21
-10.091999999999979
 31
0.0
  0
LINE
  5
1C8
  8
DATA
  6
CONTINUOUS
 62
     7
 10
-47.029999999999973
 20
-9.4169999999999998
 30
0.0
 11
-52.97000000000002
 21
-10.091999999999979
 31
0.0
  0
LINE
  5
1C9
  8
DATA
  6
CONTINUOUS
 62
     7
 10
-47.029999999999973
 20
-7.9320000000000013
 30
0.0
 11
-52.97000000000002
 21
-8.6069999999999851
 31
0.0
  0
LINE
  5
1CA
  8
DATA
  6
CONTINUOUS
 62
     7
 10
-47.029999999999973
 20
-7.4369999999999958
 30
0.0
 11
-52.97000000000002
 21
-8.1119999999999877
 31
0.0
  0
LINE
  5
1CB
  8
DATA
  6
CONTINUOUS
 62
     7
 10
-47.029999999999973
 20
-7.4369999999999958
 30
0.0
 11
-52.97000000000002
 21
-8.1119999999999877
 31
0.0
  0
LINE
  5
1CC
  8
DATA
  6
CONTINUOUS
 62
     7
 10
-47.029999999999973
 20
-5.9519999999999982
 30
0.0
 11
-52.97000000000002
 21
-6.6269999999999882
 31
0.0
  0
LINE
  5
1CD
  8
DATA
  6
CONTINUOUS
 62
     7
 10
-47.029999999999973
 20
-5.4569999999999999
 30
0.0
 11
-52.97000000000002
 21
-6.1319999999999828
 31
0.0
  0
LINE
  5
1CE
  8
DATA
  6
CONTINUOUS
 62
     7
 10
-47.029999999999973
 20
-5.4569999999999999
 30
0.0
 11
-52.97000000000002
 21
-6.1319999999999828
 31
0.0
  0
LINE
  5
1CF
  8
DATA
  6
CONTINUOUS
 62
     7
 10
-47.029999999999973
 20
-3.972
 30
0.0
 11
-52.97000000000002
 21
-4.6469999999999843
 31
0.0
  0
LINE
  5
1D0
  8
DATA
  6
CONTINUOUS
 62
     7
 10
-47.029999999999973
 20
-3.4769999999999959
 30
0.0
 11
-52.97000000000002
 21
-4.1519999999999859
 31
0.0
  0
LINE
  5
1D1
  8
DATA
  6
CONTINUOUS
 62
     7
 10
-47.029999999999973
 20
-3.4769999999999959
 30
0.0
 11
-52.97000000000002
 21
-4.1519999999999859
 31
0.0
  0
LINE
  5
1D2
  8
DATA
  6
CONTINUOUS
 62
     7
 10
-47.029999999999973
 20
-1.9919999999999971
 30
0.0
 11
-52.97000000000002
 21
-2.6669999999999869
 31
0.0
  0
LINE
  5
1D3
  8
DATA
  6
CONTINUOUS
 62
     7
 10
-47.029999999999973
 20
-1.4970000000000001
 30
0.0
 11
-52.97000000000002
 21
-2.1719999999999891
 31
0.0
  0
LINE
  5
1D4
  8
DATA
  6
CONTINUOUS
 62
     7
 10
-47.029999999999973
 20
-1.4970000000000001
 30
0.0
 11
-52.97000000000002
 21
-2.1719999999999891
 31
0.0
  0
LINE
  5
1D5
  8
DATA
  6
CONTINUOUS
 62
     7
 10
-47.029999999999973
 20
-0.0120000000000005
 30
0.0
 11
-52.97000000000002
 21
-0.6869999999999905
 31
0.0
  0
LINE
  5
1D6
  8
DATA
  6
CONTINUOUS
 62
     7
 10
-47.029999999999973
 20
0.4829999999999971
 30
0.0
 11
-52.97000000000002
 21
-0.1919999999999931
 31
0.0
  0
LINE
  5
1D7
  8
DATA
  6
CONTINUOUS
 62
     7
 10
-47.029999999999973
 20
0.4829999999999971
 30
0.0
 11
-52.97000000000002
 21
-0.1919999999999931
 31
0.0
  0
LINE
  5
1D8
  8
DATA
  6
CONTINUOUS
 62
     7
 10
-47.029999999999973
 20
1.967999999999996
 30
0.0
 11
-52.97000000000002
 21
1.2930000000000059
 31
0.0
  0
LINE
  5
1D9
  8
DATA
  6
CONTINUOUS
 62
     7
 10
-47.029999999999973
 20
2.4630000000000001
 30
0.0
 11
-52.97000000000002
 21
1.7880000000000029
 31
0.0
  0
LINE
  5
1DA
  8
DATA
  6
CONTINUOUS
 62
     7
 10
-47.029999999999973
 20
2.4630000000000001
 30
0.0
 11
-52.97000000000002
 21
1.7880000000000029
 31
0.0
  0
LINE
  5
1DB
  8
DATA
  6
CONTINUOUS
 62
     7
 10
-47.029999999999973
 20
3.948
 30
0.0
 11
-52.97000000000002
 21
3.2730000000000099
 31
0.0
  0
LINE
  5
1DC
  8
DATA
  6
CONTINUOUS
 62
     7
 10
-47.029999999999973
 20
4.4430000000000041
 30
0.0
 11
-52.97000000000002
 21
3.7680000000000069
 31
0.0
  0
LINE
  5
1DD
  8
DATA
  6
CONTINUOUS
 62
     7
 10
-47.029999999999973
 20
4.4430000000000041
 30
0.0
 11
-52.97000000000002
 21
3.7680000000000069
 31
0.0
  0
LINE
  5
1DE
  8
DATA
  6
CONTINUOUS
 62
     7
 10
-47.029999999999973
 20
5.9280000000000044
 30
0.0
 11
-52.97000000000002
 21
5.2530000000000072
 31
0.0
  0
LINE
  5
1DF
  8
DATA
  6
CONTINUOUS
 62
     7
 10
-47.029999999999973
 20
6.4229999999999938
 30
0.0
 11
-52.97000000000002
 21
5.7480000000000109
 31
0.0
  0
LINE
  5
1E0
  8
DATA
  6
CONTINUOUS
 62
     7
 10
-47.029999999999973
 20
6.4229999999999938
 30
0.0
 11
-52.97000000000002
 21
5.7480000000000109
 31
0.0
  0
LINE
  5
1E1
  8
DATA
  6
CONTINUOUS
 62
     7
 10
-47.029999999999973
 20
7.9080000000000084
 30
0.0
 11
-52.97000000000002
 21
7.2330000000000112
 31
0.0
  0
LINE
  5
1E2
  8
DATA
  6
CONTINUOUS
 62
     7
 10
-47.029999999999973
 20
8.4029999999999987
 30
0.0
 11
-52.97000000000002
 21
7.7280000000000006
 31
0.0
  0
LINE
  5
1E3
  8
DATA
  6
CONTINUOUS
 62
     7
 10
-47.029999999999973
 20
8.4029999999999987
 30
0.0
 11
-52.97000000000002
 21
7.7280000000000006
 31
0.0
  0
LINE
  5
1E4
  8
DATA
  6
CONTINUOUS
 62
     7
 10
-47.029999999999973
 20
9.8879999999999981
 30
0.0
 11
-52.97000000000002
 21
9.2130000000000152
 31
0.0
  0
LINE
  5
1E5
  8
DATA
  6
CONTINUOUS
 62
     7
 10
-47.029999999999973
 20
10.382999999999999
 30
0.0
 11
-52.97000000000002
 21
9.7080000000000037
 31
0.0
  0
LINE
  5
1E6
  8
DATA
  6
CONTINUOUS
 62
     7
 10
-47.029999999999973
 20
10.382999999999999
 30
0.0
 11
-52.97000000000002
 21
9.7080000000000037
 31
0.0
  0
LINE
  5
1E7
  8
DATA
  6
CONTINUOUS
 62
     7
 10
-47.029999999999973
 20
11.868
 30
0.0
 11
-52.97000000000002
 21
11.193
 31
0.0
  0
LINE
  5
1E8
  8
DATA
  6
CONTINUOUS
 62
     7
 10
-47.029999999999973
 20
12.362999999999991
 30
0.0
 11
-52.97000000000002
 21
11.688000000000001
 31
0.0
  0
LINE
  5
1E9
  8
DATA
  6
CONTINUOUS
 62
     7
 10
-47.029999999999973
 20
12.362999999999991
 30
0.0
 11
-52.97000000000002
 21
11.688000000000001
 31
0.0
  0
LINE
  5
1EA
  8
DATA
  6
CONTINUOUS
 62
     7
 10
-47.029999999999973
 20
13.848000000000001
 30
0.0
 11
-52.97000000000002
 21
13.173000000000011
 31
0.0
  0
LINE
  5
1EB
  8
DATA
  6
CONTINUOUS
 62
     7
 10
-47.029999999999973
 20
14.342999999999989
 30
0.0
 11
-52.97000000000002
 21
13.66800000000001
 31
0.0
  0
LINE
  5
1EC
  8
DATA
  6
CONTINUOUS
 62
     7
 10
-47.029999999999973
 20
14.342999999999989
 30
0.0
 11
-52.97000000000002
 21
13.66800000000001
 31
0.0
  0
LINE
  5
1ED
  8
DATA
  6
CONTINUOUS
 62
     7
 10
-47.029999999999973
 20
15.827999999999991
 30
0.0
 11
-52.97000000000002
 21
15.153000000000009
 31
0.0
  0
LINE
  5
1EE
  8
DATA
  6
CONTINUOUS
 62
     7
 10
-47.029999999999973
 20
16.323
 30
0.0
 11
-52.97000000000002
 21
15.64800000000001
 31
0.0
  0
LINE
  5
1EF
  8
DATA
  6
CONTINUOUS
 62
     7
 10
-47.029999999999973
 20
16.323
 30
0.0
 11
-52.97000000000002
 21
15.64800000000001
 31
0.0
  0
LINE
  5
1F0
  8
DATA
  6
CONTINUOUS
 62
     7
 10
-47.029999999999973
 20
17.808
 30
0.0
 11
-52.97000000000002
 21
17.132999999999999
 31
0.0
  0
LINE
  5
1F1
  8
DATA
  6
CONTINUOUS
 62
     7
 10
-47.029999999999973
 20
18.30299999999999
 30
0.0
 11
-52.97000000000002
 21
17.628000000000011
 31
0.0
  0
LINE
  5
1F2
  8
DATA
  6
CONTINUOUS
 62
     7
 10
-47.029999999999973
 20
18.30299999999999
 30
0.0
 11
-52.97000000000002
 21
17.628000000000011
 31
0.0
  0
LINE
  5
1F3
  8
DATA
  6
CONTINUOUS
 62
     7
 10
-47.029999999999973
 20
19.788
 30
0.0
 11
-52.97000000000002
 21
19.113
 31
0.0
  0
LINE
  5
1F4
  8
DATA
  6
CONTINUOUS
 62
     7
 10
-47.029999999999973
 20
20.283000000000008
 30
0.0
 11
-52.97000000000002
 21
19.608000000000001
 31
0.0
  0
LINE
  5
1F5
  8
DATA
  6
CONTINUOUS
 62
     7
 10
-47.029999999999973
 20
20.283000000000008
 30
0.0
 11
-52.97000000000002
 21
19.608000000000001
 31
0.0
  0
LINE
  5
1F6
  8
DATA
  6
CONTINUOUS
 62
     7
 10
-47.029999999999973
 20
21.768000000000001
 30
0.0
 11
-52.97000000000002
 21
21.093000000000011
 31
0.0
  0
LINE
  5
1F7
  8
DATA
  6
CONTINUOUS
 62
     7
 10
-47.029999999999973
 20
22.263000000000002
 30
0.0
 11
-52.97000000000002
 21
21.588000000000012
 31
0.0
  0
LINE
  5
1F8
  8
DATA
  6
CONTINUOUS
 62
     7
 10
-47.029999999999973
 20
22.263000000000002
 30
0.0
 11
-52.97000000000002
 21
21.588000000000012
 31
0.0
  0
LINE
  5
1F9
  8
DATA
  6
CONTINUOUS
 62
     7
 10
-47.029999999999973
 20
23.748000000000001
 30
0.0
 11
-52.97000000000002
 21
23.073000000000011
 31
0.0
  0
LINE
  5
1FA
  8
DATA
  6
CONTINUOUS
 62
     7
 10
-47.029999999999973
 20
24.242999999999999
 30
0.0
 11
-52.97000000000002
 21
23.568000000000008
 31
0.0
  0
LINE
  5
1FB
  8
DATA
  6
CONTINUOUS
 62
     7
 10
-47.029999999999973
 20
-13.377000000000001
 30
0.0
 11
-52.97000000000002
 21
-14.05199999999998
 31
0.0
  0
LINE
  5
1FC
  8
DATA
  6
CONTINUOUS
 62
     7
 10
-47.029999999999973
 20
-11.891999999999999
 30
0.0
 11
-52.97000000000002
 21
-12.566999999999981
 31
0.0
  0
LINE
  5
1FD
  8
DATA
  6
CONTINUOUS
 62
     7
 10
-47.029999999999973
 20
-11.397
 30
0.0
 11
-52.97000000000002
 21
-12.07199999999999
 31
0.0
  0
LINE
  5
1FE
  8
DATA
  6
CONTINUOUS
 62
     7
 10
-47.029999999999973
 20
-11.397
 30
0.0
 11
-52.97000000000002
 21
-12.07199999999999
 31
0.0
  0
LINE
  5
1FF
  8
DATA
  6
CONTINUOUS
 62
     7
 10
-47.029999999999973
 20
-9.9120000000000008
 30
0.0
 11
-52.97000000000002
 21
-10.586999999999991
 31
0.0
  0
LINE
  5
200
  8
DATA
  6
CONTINUOUS
 62
     7
 10
-47.029999999999973
 20
-9.4169999999999998
 30
0.0
 11
-52.97000000000002
 21
-10.091999999999979
 31
0.0
  0
LINE
  5
201
  8
DATA
  6
CONTINUOUS
 62
     7
 10
-47.029999999999973
 20
-9.4169999999999998
 30
0.0
 11
-52.97000000000002
 21
-10.091999999999979
 31
0.0
  0
LINE
  5
202
  8
DATA
  6
CONTINUOUS
 62
     7
 10
-47.029999999999973
 20
-7.9320000000000013
 30
0.0
 11
-52.97000000000002
 21
-8.6069999999999851
 31
0.0
  0
LINE
  5
203
  8
DATA
  6
CONTINUOUS
 62
     7
 10
-47.029999999999973
 20
-7.4369999999999958
 30
0.0
 11
-52.97000000000002
 21
-8.1119999999999877
 31
0.0
  0
LINE
  5
204
  8
DATA
  6
CONTINUOUS
 62
     7
 10
-47.029999999999973
 20
-7.4369999999999958
 30
0.0
 11
-52.97000000000002
 21
-8.1119999999999877
 31
0.0
  0
LINE
  5
205
  8
DATA
  6
CONTINUOUS
 62
     7
 10
-47.029999999999973
 20
-5.9519999999999982
 30
0.0
 11
-52.97000000000002
 21
-6.6269999999999882
 31
0.0
  0
LINE
  5
206
  8
DATA
  6
CONTINUOUS
 62
     7
 10
-47.029999999999973
 20
-5.4569999999999999
 30
0.0
 11
-52.97000000000002
 21
-6.1319999999999828
 31
0.0
  0
LINE
  5
207
  8
DATA
  6
CONTINUOUS
 62
     7
 10
-47.029999999999973
 20
-5.4569999999999999
 30
0.0
 11
-52.97000000000002
 21
-6.1319999999999828
 31
0.0
  0
LINE
  5
208
  8
DATA
  6
CONTINUOUS
 62
     7
 10
-47.029999999999973
 20
-3.972
 30
0.0
 11
-52.97000000000002
 21
-4.6469999999999843
 31
0.0
  0
LINE
  5
209
  8
DATA
  6
CONTINUOUS
 62
     7
 10
-47.029999999999973
 20
-3.4769999999999959
 30
0.0
 11
-52.97000000000002
 21
-4.1519999999999859
 31
0.0
  0
LINE
  5
20A
  8
DATA
  6
CONTINUOUS
 62
     7
 10
-47.029999999999973
 20
-3.4769999999999959
 30
0.0
 11
-52.97000000000002
 21
-4.1519999999999859
 31
0.0
  0
LINE
  5
20B
  8
DATA
  6
CONTINUOUS
 62
     7
 10
-47.029999999999973
 20
-1.9919999999999971
 30
0.0
 11
-52.97000000000002
 21
-2.6669999999999869
 31
0.0
  0
LINE
  5
20C
  8
DATA
  6
CONTINUOUS
 62
     7
 10
-47.029999999999973
 20
-1.4970000000000001
 30
0.0
 11
-52.97000000000002
 21
-2.1719999999999891
 31
0.0
  0
LINE
  5
20D
  8
DATA
  6
CONTINUOUS
 62
     7
 10
-47.029999999999973
 20
-1.4970000000000001
 30
0.0
 11
-52.97000000000002
 21
-2.1719999999999891
 31
0.0
  0
LINE
  5
20E
  8
DATA
  6
CONTINUOUS
 62
     7
 10
-47.029999999999973
 20
-0.0120000000000005
 30
0.0
 11
-52.97000000000002
 21
-0.6869999999999905
 31
0.0
  0
LINE
  5
20F
  8
DATA
  6
CONTINUOUS
 62
     7
 10
-47.029999999999973
 20
0.4829999999999971
 30
0.0
 11
-52.97000000000002
 21
-0.1919999999999931
 31
0.0
  0
LINE
  5
210
  8
DATA
  6
CONTINUOUS
 62
     7
 10
-47.029999999999973
 20
0.4829999999999971
 30
0.0
 11
-52.97000000000002
 21
-0.1919999999999931
 31
0.0
  0
LINE
  5
211
  8
DATA
  6
CONTINUOUS
 62
     7
 10
-47.029999999999973
 20
1.967999999999996
 30
0.0
 11
-52.97000000000002
 21
1.2930000000000059
 31
0.0
  0
LINE
  5
212
  8
DATA
  6
CONTINUOUS
 62
     7
 10
-47.029999999999973
 20
2.4630000000000001
 30
0.0
 11
-52.97000000000002
 21
1.7880000000000029
 31
0.0
  0
LINE
  5
213
  8
DATA
  6
CONTINUOUS
 62
     7
 10
-47.029999999999973
 20
2.4630000000000001
 30
0.0
 11
-52.97000000000002
 21
1.7880000000000029
 31
0.0
  0
LINE
  5
214
  8
DATA
  6
CONTINUOUS
 62
     7
 10
-47.029999999999973
 20
3.948
 30
0.0
 11
-52.97000000000002
 21
3.2730000000000099
 31
0.0
  0
LINE
  5
215
  8
DATA
  6
CONTINUOUS
 62
     7
 10
-47.029999999999973
 20
4.4430000000000041
 30
0.0
 11
-52.97000000000002
 21
3.7680000000000069
 31
0.0
  0
LINE
  5
216
  8
DATA
  6
CONTINUOUS
 62
     7
 10
-47.029999999999973
 20
4.4430000000000041
 30
0.0
 11
-52.97000000000002
 21
3.7680000000000069
 31
0.0
  0
LINE
  5
217
  8
DATA
  6
CONTINUOUS
 62
     7
 10
-47.029999999999973
 20
5.9280000000000044
 30
0.0
 11
-52.97000000000002
 21
5.2530000000000072
 31
0.0
  0
LINE
  5
218
  8
DATA
  6
CONTINUOUS
 62
     7
 10
-47.029999999999973
 20
6.4229999999999938
 30
0.0
 11
-52.97000000000002
 21
5.7480000000000109
 31
0.0
  0
LINE
  5
219
  8
DATA
  6
CONTINUOUS
 62
     7
 10
-47.029999999999973
 20
6.4229999999999938
 30
0.0
 11
-52.97000000000002
 21
5.7480000000000109
 31
0.0
  0
LINE
  5
21A
  8
DATA
  6
CONTINUOUS
 62
     7
 10
-47.029999999999973
 20
7.9080000000000084
 30
0.0
 11
-52.97000000000002
 21
7.2330000000000112
 31
0.0
  0
LINE
  5
21B
  8
DATA
  6
CONTINUOUS
 62
     7
 10
-47.029999999999973
 20
8.4029999999999987
 30
0.0
 11
-52.97000000000002
 21
7.7280000000000006
 31
0.0
  0
LINE
  5
21C
  8
DATA
  6
CONTINUOUS
 62
     7
 10
-47.029999999999973
 20
8.4029999999999987
 30
0.0
 11
-52.97000000000002
 21
7.7280000000000006
 31
0.0
  0
LINE
  5
21D
  8
DATA
  6
CONTINUOUS
 62
     7
 10
-47.029999999999973
 20
9.8879999999999981
 30
0.0
 11
-52.97000000000002
 21
9.2130000000000152
 31
0.0
  0
LINE
  5
21E
  8
DATA
  6
CONTINUOUS
 62
     7
 10
-47.029999999999973
 20
10.382999999999999
 30
0.0
 11
-52.97000000000002
 21
9.7080000000000037
 31
0.0
  0
LINE
  5
21F
  8
DATA
  6
CONTINUOUS
 62
     7
 10
-47.029999999999973
 20
10.382999999999999
 30
0.0
 11
-52.97000000000002
 21
9.7080000000000037
 31
0.0
  0
LINE
  5
220
  8
DATA
  6
CONTINUOUS
 62
     7
 10
-47.029999999999973
 20
11.868
 30
0.0
 11
-52.97000000000002
 21
11.193
 31
0.0
  0
LINE
  5
221
  8
DATA
  6
CONTINUOUS
 62
     7
 10
-47.029999999999973
 20
12.362999999999991
 30
0.0
 11
-52.97000000000002
 21
11.688000000000001
 31
0.0
  0
LINE
  5
222
  8
DATA
  6
CONTINUOUS
 62
     7
 10
-47.029999999999973
 20
12.362999999999991
 30
0.0
 11
-52.97000000000002
 21
11.688000000000001
 31
0.0
  0
LINE
  5
223
  8
DATA
  6
CONTINUOUS
 62
     7
 10
-47.029999999999973
 20
13.848000000000001
 30
0.0
 11
-52.97000000000002
 21
13.173000000000011
 31
0.0
  0
LINE
  5
224
  8
DATA
  6
CONTINUOUS
 62
     7
 10
-47.029999999999973
 20
14.342999999999989
 30
0.0
 11
-52.97000000000002
 21
13.66800000000001
 31
0.0
  0
LINE
  5
225
  8
DATA
  6
CONTINUOUS
 62
     7
 10
-47.029999999999973
 20
14.342999999999989
 30
0.0
 11
-52.97000000000002
 21
13.66800000000001
 31
0.0
  0
LINE
  5
226
  8
DATA
  6
CONTINUOUS
 62
     7
 10
-47.029999999999973
 20
15.827999999999991
 30
0.0
 11
-52.97000000000002
 21
15.153000000000009
 31
0.0
  0
LINE
  5
227
  8
DATA
  6
CONTINUOUS
 62
     7
 10
-47.029999999999973
 20
16.323
 30
0.0
 11
-52.97000000000002
 21
15.64800000000001
 31
0.0
  0
LINE
  5
228
  8
DATA
  6
CONTINUOUS
 62
     7
 10
-47.029999999999973
 20
16.323
 30
0.0
 11
-52.97000000000002
 21
15.64800000000001
 31
0.0
  0
LINE
  5
229
  8
DATA
  6
CONTINUOUS
 62
     7
 10
-47.029999999999973
 20
17.808
 30
0.0
 11
-52.97000000000002
 21
17.132999999999999
 31
0.0
  0
LINE
  5
22A
  8
DATA
  6
CONTINUOUS
 62
     7
 10
-47.029999999999973
 20
18.30299999999999
 30
0.0
 11
-52.97000000000002
 21
17.628000000000011
 31
0.0
  0
LINE
  5
22B
  8
DATA
  6
CONTINUOUS
 62
     7
 10
-47.029999999999973
 20
18.30299999999999
 30
0.0
 11
-52.97000000000002
 21
17.628000000000011
 31
0.0
  0
LINE
  5
22C
  8
DATA
  6
CONTINUOUS
 62
     7
 10
-47.029999999999973
 20
19.788
 30
0.0
 11
-52.97000000000002
 21
19.113
 31
0.0
  0
LINE
  5
22D
  8
DATA
  6
CONTINUOUS
 62
     7
 10
-47.029999999999973
 20
20.283000000000008
 30
0.0
 11
-52.97000000000002
 21
19.608000000000001
 31
0.0
  0
LINE
  5
22E
  8
DATA
  6
CONTINUOUS
 62
     7
 10
-47.029999999999973
 20
20.283000000000008
 30
0.0
 11
-52.97000000000002
 21
19.608000000000001
 31
0.0
  0
LINE
  5
22F
  8
DATA
  6
CONTINUOUS
 62
     7
 10
-47.029999999999973
 20
21.768000000000001
 30
0.0
 11
-52.97000000000002
 21
21.093000000000011
 31
0.0
  0
LINE
  5
230
  8
DATA
  6
CONTINUOUS
 62
     7
 10
-47.029999999999973
 20
22.263000000000002
 30
0.0
 11
-52.97000000000002
 21
21.588000000000012
 31
0.0
  0
LINE
  5
231
  8
DATA
  6
CONTINUOUS
 62
     7
 10
-47.029999999999973
 20
22.263000000000002
 30
0.0
 11
-52.97000000000002
 21
21.588000000000012
 31
0.0
  0
LINE
  5
232
  8
DATA
  6
CONTINUOUS
 62
     7
 10
-47.029999999999973
 20
23.748000000000001
 30
0.0
 11
-52.97000000000002
 21
23.073000000000011
 31
0.0
  0
LINE
  5
233
  8
DATA
  6
CONTINUOUS
 62
     7
 10
-47.029999999999973
 20
24.242999999999999
 30
0.0
 11
-52.97000000000002
 21
23.568000000000008
 31
0.0
  0
LINE
  5
234
  8
DATA
  6
CONTINUOUS
 62
     7
 10
-47.029999999999973
 20
24.242999999999999
 30
0.0
 11
-52.97000000000002
 21
23.568000000000008
 31
0.0
  0
LINE
  5
235
  8
DATA
  6
CONTINUOUS
 62
     7
 10
-47.029999999999973
 20
25.728000000000002
 30
0.0
 11
-52.97000000000002
 21
25.053000000000019
 31
0.0
  0
LINE
  5
236
  8
DATA
  6
CONTINUOUS
 62
     7
 10
-47.029999999999973
 20
26.22300000000001
 30
0.0
 11
-52.97000000000002
 21
25.54800000000002
 31
0.0
  0
LINE
  5
237
  8
DATA
  6
CONTINUOUS
 62
     7
 10
-47.029999999999973
 20
-11.397
 30
0.0
 11
-52.97000000000002
 21
-12.07199999999999
 31
0.0
  0
LINE
  5
238
  8
DATA
  6
CONTINUOUS
 62
     7
 10
-47.029999999999973
 20
-9.9120000000000008
 30
0.0
 11
-52.97000000000002
 21
-10.586999999999991
 31
0.0
  0
LINE
  5
239
  8
DATA
  6
CONTINUOUS
 62
     7
 10
-47.029999999999973
 20
-9.4169999999999998
 30
0.0
 11
-52.97000000000002
 21
-10.091999999999979
 31
0.0
  0
LINE
  5
23A
  8
DATA
  6
CONTINUOUS
 62
     7
 10
-47.029999999999973
 20
-9.4169999999999998
 30
0.0
 11
-52.97000000000002
 21
-10.091999999999979
 31
0.0
  0
LINE
  5
23B
  8
DATA
  6
CONTINUOUS
 62
     7
 10
-47.029999999999973
 20
-7.9320000000000013
 30
0.0
 11
-52.97000000000002
 21
-8.6069999999999851
 31
0.0
  0
LINE
  5
23C
  8
DATA
  6
CONTINUOUS
 62
     7
 10
-47.029999999999973
 20
-7.4369999999999958
 30
0.0
 11
-52.97000000000002
 21
-8.1119999999999877
 31
0.0
  0
LINE
  5
23D
  8
DATA
  6
CONTINUOUS
 62
     7
 10
-47.029999999999973
 20
-7.4369999999999958
 30
0.0
 11
-52.97000000000002
 21
-8.1119999999999877
 31
0.0
  0
LINE
  5
23E
  8
DATA
  6
CONTINUOUS
 62
     7
 10
-47.029999999999973
 20
-5.9519999999999982
 30
0.0
 11
-52.97000000000002
 21
-6.6269999999999882
 31
0.0
  0
LINE
  5
23F
  8
DATA
  6
CONTINUOUS
 62
     7
 10
-47.029999999999973
 20
-5.4569999999999999
 30
0.0
 11
-52.97000000000002
 21
-6.1319999999999828
 31
0.0
  0
LINE
  5
240
  8
DATA
  6
CONTINUOUS
 62
     7
 10
-47.029999999999973
 20
-5.4569999999999999
 30
0.0
 11
-52.97000000000002
 21
-6.1319999999999828
 31
0.0
  0
LINE
  5
241
  8
DATA
  6
CONTINUOUS
 62
     7
 10
-47.029999999999973
 20
-3.972
 30
0.0
 11
-52.97000000000002
 21
-4.6469999999999843
 31
0.0
  0
LINE
  5
242
  8
DATA
  6
CONTINUOUS
 62
     7
 10
-47.029999999999973
 20
-3.4769999999999959
 30
0.0
 11
-52.97000000000002
 21
-4.1519999999999859
 31
0.0
  0
LINE
  5
243
  8
DATA
  6
CONTINUOUS
 62
     7
 10
-47.029999999999973
 20
-3.4769999999999959
 30
0.0
 11
-52.97000000000002
 21
-4.1519999999999859
 31
0.0
  0
LINE
  5
244
  8
DATA
  6
CONTINUOUS
 62
     7
 10
-47.029999999999973
 20
-1.9919999999999971
 30
0.0
 11
-52.97000000000002
 21
-2.6669999999999869
 31
0.0
  0
LINE
  5
245
  8
DATA
  6
CONTINUOUS
 62
     7
 10
-47.029999999999973
 20
-1.4970000000000001
 30
0.0
 11
-52.97000000000002
 21
-2.1719999999999891
 31
0.0
  0
LINE
  5
246
  8
DATA
  6
CONTINUOUS
 62
     7
 10
-47.029999999999973
 20
-1.4970000000000001
 30
0.0
 11
-52.97000000000002
 21
-2.1719999999999891
 31
0.0
  0
LINE
  5
247
  8
DATA
  6
CONTINUOUS
 62
     7
 10
-47.029999999999973
 20
-0.0120000000000005
 30
0.0
 11
-52.97000000000002
 21
-0.6869999999999905
 31
0.0
  0
LINE
  5
248
  8
DATA
  6
CONTINUOUS
 62
     7
 10
-47.029999999999973
 20
0.4829999999999971
 30
0.0
 11
-52.97000000000002
 21
-0.1919999999999931
 31
0.0
  0
LINE
  5
249
  8
DATA
  6
CONTINUOUS
 62
     7
 10
-47.029999999999973
 20
0.4829999999999971
 30
0.0
 11
-52.97000000000002
 21
-0.1919999999999931
 31
0.0
  0
LINE
  5
24A
  8
DATA
  6
CONTINUOUS
 62
     7
 10
-47.029999999999973
 20
1.967999999999996
 30
0.0
 11
-52.97000000000002
 21
1.2930000000000059
 31
0.0
  0
LINE
  5
24B
  8
DATA
  6
CONTINUOUS
 62
     7
 10
-47.029999999999973
 20
2.4630000000000001
 30
0.0
 11
-52.97000000000002
 21
1.7880000000000029
 31
0.0
  0
LINE
  5
24C
  8
DATA
  6
CONTINUOUS
 62
     7
 10
-47.029999999999973
 20
2.4630000000000001
 30
0.0
 11
-52.97000000000002
 21
1.7880000000000029
 31
0.0
  0
LINE
  5
24D
  8
DATA
  6
CONTINUOUS
 62
     7
 10
-47.029999999999973
 20
3.948
 30
0.0
 11
-52.97000000000002
 21
3.2730000000000099
 31
0.0
  0
LINE
  5
24E
  8
DATA
  6
CONTINUOUS
 62
     7
 10
-47.029999999999973
 20
4.4430000000000041
 30
0.0
 11
-52.97000000000002
 21
3.7680000000000069
 31
0.0
  0
LINE
  5
24F
  8
DATA
  6
CONTINUOUS
 62
     7
 10
-47.029999999999973
 20
4.4430000000000041
 30
0.0
 11
-52.97000000000002
 21
3.7680000000000069
 31
0.0
  0
LINE
  5
250
  8
DATA
  6
CONTINUOUS
 62
     7
 10
-47.029999999999973
 20
5.9280000000000044
 30
0.0
 11
-52.97000000000002
 21
5.2530000000000072
 31
0.0
  0
LINE
  5
251
  8
DATA
  6
CONTINUOUS
 62
     7
 10
-47.029999999999973
 20
6.4229999999999938
 30
0.0
 11
-52.97000000000002
 21
5.7480000000000109
 31
0.0
  0
LINE
  5
252
  8
DATA
  6
CONTINUOUS
 62
     7
 10
-47.029999999999973
 20
6.4229999999999938
 30
0.0
 11
-52.97000000000002
 21
5.7480000000000109
 31
0.0
  0
LINE
  5
253
  8
DATA
  6
CONTINUOUS
 62
     7
 10
-47.029999999999973
 20
7.9080000000000084
 30
0.0
 11
-52.97000000000002
 21
7.2330000000000112
 31
0.0
  0
LINE
  5
254
  8
DATA
  6
CONTINUOUS
 62
     7
 10
-47.029999999999973
 20
8.4029999999999987
 30
0.0
 11
-52.97000000000002
 21
7.7280000000000006
 31
0.0
  0
LINE
  5
255
  8
DATA
  6
CONTINUOUS
 62
     7
 10
-47.029999999999973
 20
8.4029999999999987
 30
0.0
 11
-52.97000000000002
 21
7.7280000000000006
 31
0.0
  0
LINE
  5
256
  8
DATA
  6
CONTINUOUS
 62
     7
 10
-47.029999999999973
 20
9.8879999999999981
 30
0.0
 11
-52.97000000000002
 21
9.2130000000000152
 31
0.0
  0
LINE
  5
257
  8
DATA
  6
CONTINUOUS
 62
     7
 10
-47.029999999999973
 20
10.382999999999999
 30
0.0
 11
-52.97000000000002
 21
9.7080000000000037
 31
0.0
  0
LINE
  5
258
  8
DATA
  6
CONTINUOUS
 62
     7
 10
-47.029999999999973
 20
10.382999999999999
 30
0.0
 11
-52.97000000000002
 21
9.7080000000000037
 31
0.0
  0
LINE
  5
259
  8
DATA
  6
CONTINUOUS
 62
     7
 10
-47.029999999999973
 20
11.868
 30
0.0
 11
-52.97000000000002
 21
11.193
 31
0.0
  0
LINE
  5
25A
  8
DATA
  6
CONTINUOUS
 62
     7
 10
-47.029999999999973
 20
12.362999999999991
 30
0.0
 11
-52.97000000000002
 21
11.688000000000001
 31
0.0
  0
LINE
  5
25B
  8
DATA
  6
CONTINUOUS
 62
     7
 10
-47.029999999999973
 20
12.362999999999991
 30
0.0
 11
-52.97000000000002
 21
11.688000000000001
 31
0.0
  0
LINE
  5
25C
  8
DATA
  6
CONTINUOUS
 62
     7
 10
-47.029999999999973
 20
13.848000000000001
 30
0.0
 11
-52.97000000000002
 21
13.173000000000011
 31
0.0
  0
LINE
  5
25D
  8
DATA
  6
CONTINUOUS
 62
     7
 10
-47.029999999999973
 20
14.342999999999989
 30
0.0
 11
-52.97000000000002
 21
13.66800000000001
 31
0.0
  0
LINE
  5
25E
  8
DATA
  6
CONTINUOUS
 62
     7
 10
-47.029999999999973
 20
14.342999999999989
 30
0.0
 11
-52.97000000000002
 21
13.66800000000001
 31
0.0
  0
LINE
  5
25F
  8
DATA
  6
CONTINUOUS
 62
     7
 10
-47.029999999999973
 20
15.827999999999991
 30
0.0
 11
-52.97000000000002
 21
15.153000000000009
 31
0.0
  0
LINE
  5
260
  8
DATA
  6
CONTINUOUS
 62
     7
 10
-47.029999999999973
 20
16.323
 30
0.0
 11
-52.97000000000002
 21
15.64800000000001
 31
0.0
  0
LINE
  5
261
  8
DATA
  6
CONTINUOUS
 62
     7
 10
-47.029999999999973
 20
16.323
 30
0.0
 11
-52.97000000000002
 21
15.64800000000001
 31
0.0
  0
LINE
  5
262
  8
DATA
  6
CONTINUOUS
 62
     7
 10
-47.029999999999973
 20
17.808
 30
0.0
 11
-52.97000000000002
 21
17.132999999999999
 31
0.0
  0
LINE
  5
263
  8
DATA
  6
CONTINUOUS
 62
     7
 10
-47.029999999999973
 20
18.30299999999999
 30
0.0
 11
-52.97000000000002
 21
17.628000000000011
 31
0.0
  0
LINE
  5
264
  8
DATA
  6
CONTINUOUS
 62
     7
 10
-47.029999999999973
 20
18.30299999999999
 30
0.0
 11
-52.97000000000002
 21
17.628000000000011
 31
0.0
  0
LINE
  5
265
  8
DATA
  6
CONTINUOUS
 62
     7
 10
-47.029999999999973
 20
19.788
 30
0.0
 11
-52.97000000000002
 21
19.113
 31
0.0
  0
LINE
  5
266
  8
DATA
  6
CONTINUOUS
 62
     7
 10
-47.029999999999973
 20
20.283000000000008
 30
0.0
 11
-52.97000000000002
 21
19.608000000000001
 31
0.0
  0
LINE
  5
267
  8
DATA
  6
CONTINUOUS
 62
     7
 10
-47.029999999999973
 20
20.283000000000008
 30
0.0
 11
-52.97000000000002
 21
19.608000000000001
 31
0.0
  0
LINE
  5
268
  8
DATA
  6
CONTINUOUS
 62
     7
 10
-47.029999999999973
 20
21.768000000000001
 30
0.0
 11
-52.97000000000002
 21
21.093000000000011
 31
0.0
  0
LINE
  5
269
  8
DATA
  6
CONTINUOUS
 62
     7
 10
-47.029999999999973
 20
22.263000000000002
 30
0.0
 11
-52.97000000000002
 21
21.588000000000012
 31
0.0
  0
LINE
  5
26A
  8
DATA
  6
CONTINUOUS
 62
     7
 10
-47.029999999999973
 20
22.263000000000002
 30
0.0
 11
-52.97000000000002
 21
21.588000000000012
 31
0.0
  0
LINE
  5
26B
  8
DATA
  6
CONTINUOUS
 62
     7
 10
-47.029999999999973
 20
23.748000000000001
 30
0.0
 11
-52.97000000000002
 21
23.073000000000011
 31
0.0
  0
LINE
  5
26C
  8
DATA
  6
CONTINUOUS
 62
     7
 10
-47.029999999999973
 20
24.242999999999999
 30
0.0
 11
-52.97000000000002
 21
23.568000000000008
 31
0.0
  0
LINE
  5
26D
  8
DATA
  6
CONTINUOUS
 62
     7
 10
-47.029999999999973
 20
24.242999999999999
 30
0.0
 11
-52.97000000000002
 21
23.568000000000008
 31
0.0
  0
LINE
  5
26E
  8
DATA
  6
CONTINUOUS
 62
     7
 10
-47.029999999999973
 20
25.728000000000002
 30
0.0
 11
-52.97000000000002
 21
25.053000000000019
 31
0.0
  0
LINE
  5
26F
  8
DATA
  6
CONTINUOUS
 62
     7
 10
-47.029999999999973
 20
26.22300000000001
 30
0.0
 11
-52.97000000000002
 21
25.54800000000002
 31
0.0
  0
LINE
  5
270
  8
DATA
  6
CONTINUOUS
 62
     7
 10
-47.029999999999973
 20
26.22300000000001
 30
0.0
 11
-52.97000000000002
 21
25.54800000000002
 31
0.0
  0
LINE
  5
271
  8
DATA
  6
CONTINUOUS
 62
     7
 10
-47.029999999999973
 20
27.707999999999991
 30
0.0
 11
-52.97000000000002
 21
27.033000000000008
 31
0.0
  0
LINE
  5
272
  8
DATA
  6
CONTINUOUS
 62
     7
 10
-47.029999999999973
 20
28.202999999999999
 30
0.0
 11
-52.97000000000002
 21
27.528000000000009
 31
0.0
  0
LINE
  5
273
  8
DATA
  6
CONTINUOUS
 62
     7
 10
-47.029999999999973
 20
-9.4169999999999998
 30
0.0
 11
-52.97000000000002
 21
-10.091999999999979
 31
0.0
  0
LINE
  5
274
  8
DATA
  6
CONTINUOUS
 62
     7
 10
-47.029999999999973
 20
-7.9320000000000013
 30
0.0
 11
-52.97000000000002
 21
-8.6069999999999851
 31
0.0
  0
LINE
  5
275
  8
DATA
  6
CONTINUOUS
 62
     7
 10
-47.029999999999973
 20
-7.4369999999999958
 30
0.0
 11
-52.97000000000002
 21
-8.1119999999999877
 31
0.0
  0
LINE
  5
276
  8
DATA
  6
CONTINUOUS
 62
     7
 10
-47.029999999999973
 20
-7.4369999999999958
 30
0.0
 11
-52.97000000000002
 21
-8.1119999999999877
 31
0.0
  0
LINE
  5
277
  8
DATA
  6
CONTINUOUS
 62
     7
 10
-47.029999999999973
 20
-5.9519999999999982
 30
0.0
 11
-52.97000000000002
 21
-6.6269999999999882
 31
0.0
  0
LINE
  5
278
  8
DATA
  6
CONTINUOUS
 62
     7
 10
-47.029999999999973
 20
-5.4569999999999999
 30
0.0
 11
-52.97000000000002
 21
-6.1319999999999828
 31
0.0
  0
LINE
  5
279
  8
DATA
  6
CONTINUOUS
 62
     7
 10
-47.029999999999973
 20
-5.4569999999999999
 30
0.0
 11
-52.97000000000002
 21
-6.1319999999999828
 31
0.0
  0
LINE
  5
27A
  8
DATA
  6
CONTINUOUS
 62
     7
 10
-47.029999999999973
 20
-3.972
 30
0.0
 11
-52.97000000000002
 21
-4.6469999999999843
 31
0.0
  0
LINE
  5
27B
  8
DATA
  6
CONTINUOUS
 62
     7
 10
-47.029999999999973
 20
-3.4769999999999959
 30
0.0
 11
-52.97000000000002
 21
-4.1519999999999859
 31
0.0
  0
LINE
  5
27C
  8
DATA
  6
CONTINUOUS
 62
     7
 10
-47.029999999999973
 20
-3.4769999999999959
 30
0.0
 11
-52.97000000000002
 21
-4.1519999999999859
 31
0.0
  0
LINE
  5
27D
  8
DATA
  6
CONTINUOUS
 62
     7
 10
-47.029999999999973
 20
-1.9919999999999971
 30
0.0
 11
-52.97000000000002
 21
-2.6669999999999869
 31
0.0
  0
LINE
  5
27E
  8
DATA
  6
CONTINUOUS
 62
     7
 10
-47.029999999999973
 20
-1.4970000000000001
 30
0.0
 11
-52.97000000000002
 21
-2.1719999999999891
 31
0.0
  0
LINE
  5
27F
  8
DATA
  6
CONTINUOUS
 62
     7
 10
-47.029999999999973
 20
-1.4970000000000001
 30
0.0
 11
-52.97000000000002
 21
-2.1719999999999891
 31
0.0
  0
LINE
  5
280
  8
DATA
  6
CONTINUOUS
 62
     7
 10
-47.029999999999973
 20
-0.0120000000000005
 30
0.0
 11
-52.97000000000002
 21
-0.6869999999999905
 31
0.0
  0
LINE
  5
281
  8
DATA
  6
CONTINUOUS
 62
     7
 10
-47.029999999999973
 20
0.4829999999999971
 30
0.0
 11
-52.97000000000002
 21
-0.1919999999999931
 31
0.0
  0
LINE
  5
282
  8
DATA
  6
CONTINUOUS
 62
     7
 10
-47.029999999999973
 20
0.4829999999999971
 30
0.0
 11
-52.97000000000002
 21
-0.1919999999999931
 31
0.0
  0
LINE
  5
283
  8
DATA
  6
CONTINUOUS
 62
     7
 10
-47.029999999999973
 20
1.967999999999996
 30
0.0
 11
-52.97000000000002
 21
1.2930000000000059
 31
0.0
  0
LINE
  5
284
  8
DATA
  6
CONTINUOUS
 62
     7
 10
-47.029999999999973
 20
2.4630000000000001
 30
0.0
 11
-52.97000000000002
 21
1.7880000000000029
 31
0.0
  0
LINE
  5
285
  8
DATA
  6
CONTINUOUS
 62
     7
 10
-47.029999999999973
 20
2.4630000000000001
 30
0.0
 11
-52.97000000000002
 21
1.7880000000000029
 31
0.0
  0
LINE
  5
286
  8
DATA
  6
CONTINUOUS
 62
     7
 10
-47.029999999999973
 20
3.948
 30
0.0
 11
-52.97000000000002
 21
3.2730000000000099
 31
0.0
  0
LINE
  5
287
  8
DATA
  6
CONTINUOUS
 62
     7
 10
-47.029999999999973
 20
4.4430000000000041
 30
0.0
 11
-52.97000000000002
 21
3.7680000000000069
 31
0.0
  0
LINE
  5
288
  8
DATA
  6
CONTINUOUS
 62
     7
 10
-47.029999999999973
 20
4.4430000000000041
 30
0.0
 11
-52.97000000000002
 21
3.7680000000000069
 31
0.0
  0
LINE
  5
289
  8
DATA
  6
CONTINUOUS
 62
     7
 10
-47.029999999999973
 20
5.9280000000000044
 30
0.0
 11
-52.97000000000002
 21
5.2530000000000072
 31
0.0
  0
LINE
  5
28A
  8
DATA
  6
CONTINUOUS
 62
     7
 10
-47.029999999999973
 20
6.4229999999999938
 30
0.0
 11
-52.97000000000002
 21
5.7480000000000109
 31
0.0
  0
LINE
  5
28B
  8
DATA
  6
CONTINUOUS
 62
     7
 10
-47.029999999999973
 20
6.4229999999999938
 30
0.0
 11
-52.97000000000002
 21
5.7480000000000109
 31
0.0
  0
LINE
  5
28C
  8
DATA
  6
CONTINUOUS
 62
     7
 10
-47.029999999999973
 20
7.9080000000000084
 30
0.0
 11
-52.97000000000002
 21
7.2330000000000112
 31
0.0
  0
LINE
  5
28D
  8
DATA
  6
CONTINUOUS
 62
     7
 10
-47.029999999999973
 20
8.4029999999999987
 30
0.0
 11
-52.97000000000002
 21
7.7280000000000006
 31
0.0
  0
LINE
  5
28E
  8
DATA
  6
CONTINUOUS
 62
     7
 10
-47.029999999999973
 20
8.4029999999999987
 30
0.0
 11
-52.97000000000002
 21
7.7280000000000006
 31
0.0
  0
LINE
  5
28F
  8
DATA
  6
CONTINUOUS
 62
     7
 10
-47.029999999999973
 20
9.8879999999999981
 30
0.0
 11
-52.97000000000002
 21
9.2130000000000152
 31
0.0
  0
LINE
  5
290
  8
DATA
  6
CONTINUOUS
 62
     7
 10
-47.029999999999973
 20
10.382999999999999
 30
0.0
 11
-52.97000000000002
 21
9.7080000000000037
 31
0.0
  0
LINE
  5
291
  8
DATA
  6
CONTINUOUS
 62
     7
 10
-47.029999999999973
 20
10.382999999999999
 30
0.0
 11
-52.97000000000002
 21
9.7080000000000037
 31
0.0
  0
LINE
  5
292
  8
DATA
  6
CONTINUOUS
 62
     7
 10
-47.029999999999973
 20
11.868
 30
0.0
 11
-52.97000000000002
 21
11.193
 31
0.0
  0
LINE
  5
293
  8
DATA
  6
CONTINUOUS
 62
     7
 10
-47.029999999999973
 20
12.362999999999991
 30
0.0
 11
-52.97000000000002
 21
11.688000000000001
 31
0.0
  0
LINE
  5
294
  8
DATA
  6
CONTINUOUS
 62
     7
 10
-47.029999999999973
 20
12.362999999999991
 30
0.0
 11
-52.97000000000002
 21
11.688000000000001
 31
0.0
  0
LINE
  5
295
  8
DATA
  6
CONTINUOUS
 62
     7
 10
-47.029999999999973
 20
13.848000000000001
 30
0.0
 11
-52.97000000000002
 21
13.173000000000011
 31
0.0
  0
LINE
  5
296
  8
DATA
  6
CONTINUOUS
 62
     7
 10
-47.029999999999973
 20
14.342999999999989
 30
0.0
 11
-52.97000000000002
 21
13.66800000000001
 31
0.0
  0
LINE
  5
297
  8
DATA
  6
CONTINUOUS
 62
     7
 10
-47.029999999999973
 20
14.342999999999989
 30
0.0
 11
-52.97000000000002
 21
13.66800000000001
 31
0.0
  0
LINE
  5
298
  8
DATA
  6
CONTINUOUS
 62
     7
 10
-47.029999999999973
 20
15.827999999999991
 30
0.0
 11
-52.97000000000002
 21
15.153000000000009
 31
0.0
  0
LINE
  5
299
  8
DATA
  6
CONTINUOUS
 62
     7
 10
-47.029999999999973
 20
16.323
 30
0.0
 11
-52.97000000000002
 21
15.64800000000001
 31
0.0
  0
LINE
  5
29A
  8
DATA
  6
CONTINUOUS
 62
     7
 10
-47.029999999999973
 20
16.323
 30
0.0
 11
-52.97000000000002
 21
15.64800000000001
 31
0.0
  0
LINE
  5
29B
  8
DATA
  6
CONTINUOUS
 62
     7
 10
-47.029999999999973
 20
17.808
 30
0.0
 11
-52.97000000000002
 21
17.132999999999999
 31
0.0
  0
LINE
  5
29C
  8
DATA
  6
CONTINUOUS
 62
     7
 10
-47.029999999999973
 20
18.30299999999999
 30
0.0
 11
-52.97000000000002
 21
17.628000000000011
 31
0.0
  0
LINE
  5
29D
  8
DATA
  6
CONTINUOUS
 62
     7
 10
-47.029999999999973
 20
18.30299999999999
 30
0.0
 11
-52.97000000000002
 21
17.628000000000011
 31
0.0
  0
LINE
  5
29E
  8
DATA
  6
CONTINUOUS
 62
     7
 10
-47.029999999999973
 20
19.788
 30
0.0
 11
-52.97000000000002
 21
19.113
 31
0.0
  0
LINE
  5
29F
  8
DATA
  6
CONTINUOUS
 62
     7
 10
-47.029999999999973
 20
20.283000000000008
 30
0.0
 11
-52.97000000000002
 21
19.608000000000001
 31
0.0
  0
LINE
  5
2A0
  8
DATA
  6
CONTINUOUS
 62
     7
 10
-47.029999999999973
 20
20.283000000000008
 30
0.0
 11
-52.97000000000002
 21
19.608000000000001
 31
0.0
  0
LINE
  5
2A1
  8
DATA
  6
CONTINUOUS
 62
     7
 10
-47.029999999999973
 20
21.768000000000001
 30
0.0
 11
-52.97000000000002
 21
21.093000000000011
 31
0.0
  0
LINE
  5
2A2
  8
DATA
  6
CONTINUOUS
 62
     7
 10
-47.029999999999973
 20
22.263000000000002
 30
0.0
 11
-52.97000000000002
 21
21.588000000000012
 31
0.0
  0
LINE
  5
2A3
  8
DATA
  6
CONTINUOUS
 62
     7
 10
-47.029999999999973
 20
22.263000000000002
 30
0.0
 11
-52.97000000000002
 21
21.588000000000012
 31
0.0
  0
LINE
  5
2A4
  8
DATA
  6
CONTINUOUS
 62
     7
 10
-47.029999999999973
 20
23.748000000000001
 30
0.0
 11
-52.97000000000002
 21
23.073000000000011
 31
0.0
  0
LINE
  5
2A5
  8
DATA
  6
CONTINUOUS
 62
     7
 10
-47.029999999999973
 20
24.242999999999999
 30
0.0
 11
-52.97000000000002
 21
23.568000000000008
 31
0.0
  0
LINE
  5
2A6
  8
DATA
  6
CONTINUOUS
 62
     7
 10
-47.029999999999973
 20
24.242999999999999
 30
0.0
 11
-52.97000000000002
 21
23.568000000000008
 31
0.0
  0
LINE
  5
2A7
  8
DATA
  6
CONTINUOUS
 62
     7
 10
-47.029999999999973
 20
25.728000000000002
 30
0.0
 11
-52.97000000000002
 21
25.053000000000019
 31
0.0
  0
LINE
  5
2A8
  8
DATA
  6
CONTINUOUS
 62
     7
 10
-47.029999999999973
 20
26.22300000000001
 30
0.0
 11
-52.97000000000002
 21
25.54800000000002
 31
0.0
  0
LINE
  5
2A9
  8
DATA
  6
CONTINUOUS
 62
     7
 10
-47.029999999999973
 20
26.22300000000001
 30
0.0
 11
-52.97000000000002
 21
25.54800000000002
 31
0.0
  0
LINE
  5
2AA
  8
DATA
  6
CONTINUOUS
 62
     7
 10
-47.029999999999973
 20
27.707999999999991
 30
0.0
 11
-52.97000000000002
 21
27.033000000000008
 31
0.0
  0
LINE
  5
2AB
  8
DATA
  6
CONTINUOUS
 62
     7
 10
-47.029999999999973
 20
28.202999999999999
 30
0.0
 11
-52.97000000000002
 21
27.528000000000009
 31
0.0
  0
LINE
  5
2AC
  8
DATA
  6
CONTINUOUS
 62
     7
 10
-47.029999999999973
 20
28.202999999999999
 30
0.0
 11
-52.97000000000002
 21
27.528000000000009
 31
0.0
  0
LINE
  5
2AD
  8
DATA
  6
CONTINUOUS
 62
     7
 10
-47.029999999999973
 20
29.688000000000009
 30
0.0
 11
-52.97000000000002
 21
29.013000000000009
 31
0.0
  0
LINE
  5
2AE
  8
DATA
  6
CONTINUOUS
 62
     7
 10
-47.029999999999973
 20
30.183
 30
0.0
 11
-52.97000000000002
 21
29.50800000000001
 31
0.0
  0
LINE
  5
2AF
  8
DATA
  6
CONTINUOUS
 62
     7
 10
-47.029999999999973
 20
-7.4369999999999958
 30
0.0
 11
-52.97000000000002
 21
-8.1119999999999877
 31
0.0
  0
LINE
  5
2B0
  8
DATA
  6
CONTINUOUS
 62
     7
 10
-47.029999999999973
 20
-5.9519999999999982
 30
0.0
 11
-52.97000000000002
 21
-6.6269999999999882
 31
0.0
  0
LINE
  5
2B1
  8
DATA
  6
CONTINUOUS
 62
     7
 10
-47.029999999999973
 20
-5.4569999999999999
 30
0.0
 11
-52.97000000000002
 21
-6.1319999999999828
 31
0.0
  0
LINE
  5
2B2
  8
DATA
  6
CONTINUOUS
 62
     7
 10
-47.029999999999973
 20
-5.4569999999999999
 30
0.0
 11
-52.97000000000002
 21
-6.1319999999999828
 31
0.0
  0
LINE
  5
2B3
  8
DATA
  6
CONTINUOUS
 62
     7
 10
-47.029999999999973
 20
-3.972
 30
0.0
 11
-52.97000000000002
 21
-4.6469999999999843
 31
0.0
  0
LINE
  5
2B4
  8
DATA
  6
CONTINUOUS
 62
     7
 10
-47.029999999999973
 20
-3.4769999999999959
 30
0.0
 11
-52.97000000000002
 21
-4.1519999999999859
 31
0.0
  0
LINE
  5
2B5
  8
DATA
  6
CONTINUOUS
 62
     7
 10
-47.029999999999973
 20
-3.4769999999999959
 30
0.0
 11
-52.97000000000002
 21
-4.1519999999999859
 31
0.0
  0
LINE
  5
2B6
  8
DATA
  6
CONTINUOUS
 62
     7
 10
-47.029999999999973
 20
-1.9919999999999971
 30
0.0
 11
-52.97000000000002
 21
-2.6669999999999869
 31
0.0
  0
LINE
  5
2B7
  8
DATA
  6
CONTINUOUS
 62
     7
 10
-47.029999999999973
 20
-1.4970000000000001
 30
0.0
 11
-52.97000000000002
 21
-2.1719999999999891
 31
0.0
  0
LINE
  5
2B8
  8
DATA
  6
CONTINUOUS
 62
     7
 10
-47.029999999999973
 20
-1.4970000000000001
 30
0.0
 11
-52.97000000000002
 21
-2.1719999999999891
 31
0.0
  0
LINE
  5
2B9
  8
DATA
  6
CONTINUOUS
 62
     7
 10
-47.029999999999973
 20
-0.0120000000000005
 30
0.0
 11
-52.97000000000002
 21
-0.6869999999999905
 31
0.0
  0
LINE
  5
2BA
  8
DATA
  6
CONTINUOUS
 62
     7
 10
-47.029999999999973
 20
0.4829999999999971
 30
0.0
 11
-52.97000000000002
 21
-0.1919999999999931
 31
0.0
  0
LINE
  5
2BB
  8
DATA
  6
CONTINUOUS
 62
     7
 10
-47.029999999999973
 20
0.4829999999999971
 30
0.0
 11
-52.97000000000002
 21
-0.1919999999999931
 31
0.0
  0
LINE
  5
2BC
  8
DATA
  6
CONTINUOUS
 62
     7
 10
-47.029999999999973
 20
1.967999999999996
 30
0.0
 11
-52.97000000000002
 21
1.2930000000000059
 31
0.0
  0
LINE
  5
2BD
  8
DATA
  6
CONTINUOUS
 62
     7
 10
-47.029999999999973
 20
2.4630000000000001
 30
0.0
 11
-52.97000000000002
 21
1.7880000000000029
 31
0.0
  0
LINE
  5
2BE
  8
DATA
  6
CONTINUOUS
 62
     7
 10
-47.029999999999973
 20
2.4630000000000001
 30
0.0
 11
-52.97000000000002
 21
1.7880000000000029
 31
0.0
  0
LINE
  5
2BF
  8
DATA
  6
CONTINUOUS
 62
     7
 10
-47.029999999999973
 20
3.948
 30
0.0
 11
-52.97000000000002
 21
3.2730000000000099
 31
0.0
  0
LINE
  5
2C0
  8
DATA
  6
CONTINUOUS
 62
     7
 10
-47.029999999999973
 20
4.4430000000000041
 30
0.0
 11
-52.97000000000002
 21
3.7680000000000069
 31
0.0
  0
LINE
  5
2C1
  8
DATA
  6
CONTINUOUS
 62
     7
 10
-47.029999999999973
 20
4.4430000000000041
 30
0.0
 11
-52.97000000000002
 21
3.7680000000000069
 31
0.0
  0
LINE
  5
2C2
  8
DATA
  6
CONTINUOUS
 62
     7
 10
-47.029999999999973
 20
5.9280000000000044
 30
0.0
 11
-52.97000000000002
 21
5.2530000000000072
 31
0.0
  0
LINE
  5
2C3
  8
DATA
  6
CONTINUOUS
 62
     7
 10
-47.029999999999973
 20
6.4229999999999938
 30
0.0
 11
-52.97000000000002
 21
5.7480000000000109
 31
0.0
  0
LINE
  5
2C4
  8
DATA
  6
CONTINUOUS
 62
     7
 10
-47.029999999999973
 20
6.4229999999999938
 30
0.0
 11
-52.97000000000002
 21
5.7480000000000109
 31
0.0
  0
LINE
  5
2C5
  8
DATA
  6
CONTINUOUS
 62
     7
 10
-47.029999999999973
 20
7.9080000000000084
 30
0.0
 11
-52.97000000000002
 21
7.2330000000000112
 31
0.0
  0
LINE
  5
2C6
  8
DATA
  6
CONTINUOUS
 62
     7
 10
-47.029999999999973
 20
8.4029999999999987
 30
0.0
 11
-52.97000000000002
 21
7.7280000000000006
 31
0.0
  0
LINE
  5
2C7
  8
DATA
  6
CONTINUOUS
 62
     7
 10
-47.029999999999973
 20
8.4029999999999987
 30
0.0
 11
-52.97000000000002
 21
7.7280000000000006
 31
0.0
  0
LINE
  5
2C8
  8
DATA
  6
CONTINUOUS
 62
     7
 10
-47.029999999999973
 20
9.8879999999999981
 30
0.0
 11
-52.97000000000002
 21
9.2130000000000152
 31
0.0
  0
LINE
  5
2C9
  8
DATA
  6
CONTINUOUS
 62
     7
 10
-47.029999999999973
 20
10.382999999999999
 30
0.0
 11
-52.97000000000002
 21
9.7080000000000037
 31
0.0
  0
LINE
  5
2CA
  8
DATA
  6
CONTINUOUS
 62
     7
 10
-47.029999999999973
 20
10.382999999999999
 30
0.0
 11
-52.97000000000002
 21
9.7080000000000037
 31
0.0
  0
LINE
  5
2CB
  8
DATA
  6
CONTINUOUS
 62
     7
 10
-47.029999999999973
 20
11.868
 30
0.0
 11
-52.97000000000002
 21
11.193
 31
0.0
  0
LINE
  5
2CC
  8
DATA
  6
CONTINUOUS
 62
     7
 10
-47.029999999999973
 20
12.362999999999991
 30
0.0
 11
-52.97000000000002
 21
11.688000000000001
 31
0.0
  0
LINE
  5
2CD
  8
DATA
  6
CONTINUOUS
 62
     7
 10
-47.029999999999973
 20
12.362999999999991
 30
0.0
 11
-52.97000000000002
 21
11.688000000000001
 31
0.0
  0
LINE
  5
2CE
  8
DATA
  6
CONTINUOUS
 62
     7
 10
-47.029999999999973
 20
13.848000000000001
 30
0.0
 11
-52.97000000000002
 21
13.173000000000011
 31
0.0
  0
LINE
  5
2CF
  8
DATA
  6
CONTINUOUS
 62
     7
 10
-47.029999999999973
 20
14.342999999999989
 30
0.0
 11
-52.97000000000002
 21
13.66800000000001
 31
0.0
  0
LINE
  5
2D0
  8
DATA
  6
CONTINUOUS
 62
     7
 10
-47.029999999999973
 20
14.342999999999989
 30
0.0
 11
-52.97000000000002
 21
13.66800000000001
 31
0.0
  0
LINE
  5
2D1
  8
DATA
  6
CONTINUOUS
 62
     7
 10
-47.029999999999973
 20
15.827999999999991
 30
0.0
 11
-52.97000000000002
 21
15.153000000000009
 31
0.0
  0
LINE
  5
2D2
  8
DATA
  6
CONTINUOUS
 62
     7
 10
-47.029999999999973
 20
16.323
 30
0.0
 11
-52.97000000000002
 21
15.64800000000001
 31
0.0
  0
LINE
  5
2D3
  8
DATA
  6
CONTINUOUS
 62
     7
 10
-47.029999999999973
 20
16.323
 30
0.0
 11
-52.97000000000002
 21
15.64800000000001
 31
0.0
  0
LINE
  5
2D4
  8
DATA
  6
CONTINUOUS
 62
     7
 10
-47.029999999999973
 20
17.808
 30
0.0
 11
-52.97000000000002
 21
17.132999999999999
 31
0.0
  0
LINE
  5
2D5
  8
DATA
  6
CONTINUOUS
 62
     7
 10
-47.029999999999973
 20
18.30299999999999
 30
0.0
 11
-52.97000000000002
 21
17.628000000000011
 31
0.0
  0
LINE
  5
2D6
  8
DATA
  6
CONTINUOUS
 62
     7
 10
-47.029999999999973
 20
18.30299999999999
 30
0.0
 11
-52.97000000000002
 21
17.628000000000011
 31
0.0
  0
LINE
  5
2D7
  8
DATA
  6
CONTINUOUS
 62
     7
 10
-47.029999999999973
 20
19.788
 30
0.0
 11
-52.97000000000002
 21
19.113
 31
0.0
  0
LINE
  5
2D8
  8
DATA
  6
CONTINUOUS
 62
     7
 10
-47.029999999999973
 20
20.283000000000008
 30
0.0
 11
-52.97000000000002
 21
19.608000000000001
 31
0.0
  0
LINE
  5
2D9
  8
DATA
  6
CONTINUOUS
 62
     7
 10
-47.029999999999973
 20
20.283000000000008
 30
0.0
 11
-52.97000000000002
 21
19.608000000000001
 31
0.0
  0
LINE
  5
2DA
  8
DATA
  6
CONTINUOUS
 62
     7
 10
-47.029999999999973
 20
21.768000000000001
 30
0.0
 11
-52.97000000000002
 21
21.093000000000011
 31
0.0
  0
LINE
  5
2DB
  8
DATA
  6
CONTINUOUS
 62
     7
 10
-47.029999999999973
 20
22.263000000000002
 30
0.0
 11
-52.97000000000002
 21
21.588000000000012
 31
0.0
  0
LINE
  5
2DC
  8
DATA
  6
CONTINUOUS
 62
     7
 10
-47.029999999999973
 20
22.263000000000002
 30
0.0
 11
-52.97000000000002
 21
21.588000000000012
 31
0.0
  0
LINE
  5
2DD
  8
DATA
  6
CONTINUOUS
 62
     7
 10
-47.029999999999973
 20
23.748000000000001
 30
0.0
 11
-52.97000000000002
 21
23.073000000000011
 31
0.0
  0
LINE
  5
2DE
  8
DATA
  6
CONTINUOUS
 62
     7
 10
-47.029999999999973
 20
24.242999999999999
 30
0.0
 11
-52.97000000000002
 21
23.568000000000008
 31
0.0
  0
LINE
  5
2DF
  8
DATA
  6
CONTINUOUS
 62
     7
 10
-47.029999999999973
 20
24.242999999999999
 30
0.0
 11
-52.97000000000002
 21
23.568000000000008
 31
0.0
  0
LINE
  5
2E0
  8
DATA
  6
CONTINUOUS
 62
     7
 10
-47.029999999999973
 20
25.728000000000002
 30
0.0
 11
-52.97000000000002
 21
25.053000000000019
 31
0.0
  0
LINE
  5
2E1
  8
DATA
  6
CONTINUOUS
 62
     7
 10
-47.029999999999973
 20
26.22300000000001
 30
0.0
 11
-52.97000000000002
 21
25.54800000000002
 31
0.0
  0
LINE
  5
2E2
  8
DATA
  6
CONTINUOUS
 62
     7
 10
-47.029999999999973
 20
26.22300000000001
 30
0.0
 11
-52.97000000000002
 21
25.54800000000002
 31
0.0
  0
LINE
  5
2E3
  8
DATA
  6
CONTINUOUS
 62
     7
 10
-47.029999999999973
 20
27.707999999999991
 30
0.0
 11
-52.97000000000002
 21
27.033000000000008
 31
0.0
  0
LINE
  5
2E4
  8
DATA
  6
CONTINUOUS
 62
     7
 10
-47.029999999999973
 20
28.202999999999999
 30
0.0
 11
-52.97000000000002
 21
27.528000000000009
 31
0.0
  0
LINE
  5
2E5
  8
DATA
  6
CONTINUOUS
 62
     7
 10
-47.029999999999973
 20
28.202999999999999
 30
0.0
 11
-52.97000000000002
 21
27.528000000000009
 31
0.0
  0
LINE
  5
2E6
  8
DATA
  6
CONTINUOUS
 62
     7
 10
-47.029999999999973
 20
29.688000000000009
 30
0.0
 11
-52.97000000000002
 21
29.013000000000009
 31
0.0
  0
LINE
  5
2E7
  8
DATA
  6
CONTINUOUS
 62
     7
 10
-47.029999999999973
 20
30.183
 30
0.0
 11
-52.97000000000002
 21
29.50800000000001
 31
0.0
  0
LINE
  5
2E8
  8
DATA
  6
CONTINUOUS
 62
     7
 10
-47.029999999999973
 20
30.183
 30
0.0
 11
-52.97000000000002
 21
29.50800000000001
 31
0.0
  0
LINE
  5
2E9
  8
DATA
  6
CONTINUOUS
 62
     7
 10
-47.029999999999973
 20
31.667999999999999
 30
0.0
 11
-52.97000000000002
 21
30.993000000000009
 31
0.0
  0
LINE
  5
2EA
  8
DATA
  6
CONTINUOUS
 62
     7
 10
-47.029999999999973
 20
32.162999999999997
 30
0.0
 11
-52.97000000000002
 21
31.488000000000021
 31
0.0
  0
LINE
  5
2EB
  8
DATA
  6
CONTINUOUS
 62
     7
 10
-47.029999999999973
 20
-5.4569999999999999
 30
0.0
 11
-52.97000000000002
 21
-6.1319999999999828
 31
0.0
  0
LINE
  5
2EC
  8
DATA
  6
CONTINUOUS
 62
     7
 10
-47.029999999999973
 20
-3.972
 30
0.0
 11
-52.97000000000002
 21
-4.6469999999999843
 31
0.0
  0
LINE
  5
2ED
  8
DATA
  6
CONTINUOUS
 62
     7
 10
-47.029999999999973
 20
-3.4769999999999959
 30
0.0
 11
-52.97000000000002
 21
-4.1519999999999859
 31
0.0
  0
LINE
  5
2EE
  8
DATA
  6
CONTINUOUS
 62
     7
 10
-47.029999999999973
 20
-3.4769999999999959
 30
0.0
 11
-52.97000000000002
 21
-4.1519999999999859
 31
0.0
  0
LINE
  5
2EF
  8
DATA
  6
CONTINUOUS
 62
     7
 10
-47.029999999999973
 20
-1.9919999999999971
 30
0.0
 11
-52.97000000000002
 21
-2.6669999999999869
 31
0.0
  0
LINE
  5
2F0
  8
DATA
  6
CONTINUOUS
 62
     7
 10
-47.029999999999973
 20
-1.4970000000000001
 30
0.0
 11
-52.97000000000002
 21
-2.1719999999999891
 31
0.0
  0
LINE
  5
2F1
  8
DATA
  6
CONTINUOUS
 62
     7
 10
-47.029999999999973
 20
-1.4970000000000001
 30
0.0
 11
-52.97000000000002
 21
-2.1719999999999891
 31
0.0
  0
LINE
  5
2F2
  8
DATA
  6
CONTINUOUS
 62
     7
 10
-47.029999999999973
 20
-0.0120000000000005
 30
0.0
 11
-52.97000000000002
 21
-0.6869999999999905
 31
0.0
  0
LINE
  5
2F3
  8
DATA
  6
CONTINUOUS
 62
     7
 10
-47.029999999999973
 20
0.4829999999999971
 30
0.0
 11
-52.97000000000002
 21
-0.1919999999999931
 31
0.0
  0
LINE
  5
2F4
  8
DATA
  6
CONTINUOUS
 62
     7
 10
-47.029999999999973
 20
0.4829999999999971
 30
0.0
 11
-52.97000000000002
 21
-0.1919999999999931
 31
0.0
  0
LINE
  5
2F5
  8
DATA
  6
CONTINUOUS
 62
     7
 10
-47.029999999999973
 20
1.967999999999996
 30
0.0
 11
-52.97000000000002
 21
1.2930000000000059
 31
0.0
  0
LINE
  5
2F6
  8
DATA
  6
CONTINUOUS
 62
     7
 10
-47.029999999999973
 20
2.4630000000000001
 30
0.0
 11
-52.97000000000002
 21
1.7880000000000029
 31
0.0
  0
LINE
  5
2F7
  8
DATA
  6
CONTINUOUS
 62
     7
 10
-47.029999999999973
 20
2.4630000000000001
 30
0.0
 11
-52.97000000000002
 21
1.7880000000000029
 31
0.0
  0
LINE
  5
2F8
  8
DATA
  6
CONTINUOUS
 62
     7
 10
-47.029999999999973
 20
3.948
 30
0.0
 11
-52.97000000000002
 21
3.2730000000000099
 31
0.0
  0
LINE
  5
2F9
  8
DATA
  6
CONTINUOUS
 62
     7
 10
-47.029999999999973
 20
4.4430000000000041
 30
0.0
 11
-52.97000000000002
 21
3.7680000000000069
 31
0.0
  0
LINE
  5
2FA
  8
DATA
  6
CONTINUOUS
 62
     7
 10
-47.029999999999973
 20
4.4430000000000041
 30
0.0
 11
-52.97000000000002
 21
3.7680000000000069
 31
0.0
  0
LINE
  5
2FB
  8
DATA
  6
CONTINUOUS
 62
     7
 10
-47.029999999999973
 20
5.9280000000000044
 30
0.0
 11
-52.97000000000002
 21
5.2530000000000072
 31
0.0
  0
LINE
  5
2FC
  8
DATA
  6
CONTINUOUS
 62
     7
 10
-47.029999999999973
 20
6.4229999999999938
 30
0.0
 11
-52.97000000000002
 21
5.7480000000000109
 31
0.0
  0
LINE
  5
2FD
  8
DATA
  6
CONTINUOUS
 62
     7
 10
-47.029999999999973
 20
6.4229999999999938
 30
0.0
 11
-52.97000000000002
 21
5.7480000000000109
 31
0.0
  0
LINE
  5
2FE
  8
DATA
  6
CONTINUOUS
 62
     7
 10
-47.029999999999973
 20
7.9080000000000084
 30
0.0
 11
-52.97000000000002
 21
7.2330000000000112
 31
0.0
  0
LINE
  5
2FF
  8
DATA
  6
CONTINUOUS
 62
     7
 10
-47.029999999999973
 20
8.4029999999999987
 30
0.0
 11
-52.97000000000002
 21
7.7280000000000006
 31
0.0
  0
LINE
  5
300
  8
DATA
  6
CONTINUOUS
 62
     7
 10
-47.029999999999973
 20
8.4029999999999987
 30
0.0
 11
-52.97000000000002
 21
7.7280000000000006
 31
0.0
  0
LINE
  5
301
  8
DATA
  6
CONTINUOUS
 62
     7
 10
-47.029999999999973
 20
9.8879999999999981
 30
0.0
 11
-52.97000000000002
 21
9.2130000000000152
 31
0.0
  0
LINE
  5
302
  8
DATA
  6
CONTINUOUS
 62
     7
 10
-47.029999999999973
 20
10.382999999999999
 30
0.0
 11
-52.97000000000002
 21
9.7080000000000037
 31
0.0
  0
LINE
  5
303
  8
DATA
  6
CONTINUOUS
 62
     7
 10
-47.029999999999973
 20
10.382999999999999
 30
0.0
 11
-52.97000000000002
 21
9.7080000000000037
 31
0.0
  0
LINE
  5
304
  8
DATA
  6
CONTINUOUS
 62
     7
 10
-47.029999999999973
 20
11.868
 30
0.0
 11
-52.97000000000002
 21
11.193
 31
0.0
  0
LINE
  5
305
  8
DATA
  6
CONTINUOUS
 62
     7
 10
-47.029999999999973
 20
12.362999999999991
 30
0.0
 11
-52.97000000000002
 21
11.688000000000001
 31
0.0
  0
LINE
  5
306
  8
DATA
  6
CONTINUOUS
 62
     7
 10
-47.029999999999973
 20
12.362999999999991
 30
0.0
 11
-52.97000000000002
 21
11.688000000000001
 31
0.0
  0
LINE
  5
307
  8
DATA
  6
CONTINUOUS
 62
     7
 10
-47.029999999999973
 20
13.848000000000001
 30
0.0
 11
-52.97000000000002
 21
13.173000000000011
 31
0.0
  0
LINE
  5
308
  8
DATA
  6
CONTINUOUS
 62
     7
 10
-47.029999999999973
 20
14.342999999999989
 30
0.0
 11
-52.97000000000002
 21
13.66800000000001
 31
0.0
  0
LINE
  5
309
  8
DATA
  6
CONTINUOUS
 62
     7
 10
-47.029999999999973
 20
14.342999999999989
 30
0.0
 11
-52.97000000000002
 21
13.66800000000001
 31
0.0
  0
LINE
  5
30A
  8
DATA
  6
CONTINUOUS
 62
     7
 10
-47.029999999999973
 20
15.827999999999991
 30
0.0
 11
-52.97000000000002
 21
15.153000000000009
 31
0.0
  0
LINE
  5
30B
  8
DATA
  6
CONTINUOUS
 62
     7
 10
-47.029999999999973
 20
16.323
 30
0.0
 11
-52.97000000000002
 21
15.64800000000001
 31
0.0
  0
LINE
  5
30C
  8
DATA
  6
CONTINUOUS
 62
     7
 10
-47.029999999999973
 20
16.323
 30
0.0
 11
-52.97000000000002
 21
15.64800000000001
 31
0.0
  0
LINE
  5
30D
  8
DATA
  6
CONTINUOUS
 62
     7
 10
-47.029999999999973
 20
17.808
 30
0.0
 11
-52.97000000000002
 21
17.132999999999999
 31
0.0
  0
LINE
  5
30E
  8
DATA
  6
CONTINUOUS
 62
     7
 10
-47.029999999999973
 20
18.30299999999999
 30
0.0
 11
-52.97000000000002
 21
17.628000000000011
 31
0.0
  0
LINE
  5
30F
  8
DATA
  6
CONTINUOUS
 62
     7
 10
-47.029999999999973
 20
18.30299999999999
 30
0.0
 11
-52.97000000000002
 21
17.628000000000011
 31
0.0
  0
LINE
  5
310
  8
DATA
  6
CONTINUOUS
 62
     7
 10
-47.029999999999973
 20
19.788
 30
0.0
 11
-52.97000000000002
 21
19.113
 31
0.0
  0
LINE
  5
311
  8
DATA
  6
CONTINUOUS
 62
     7
 10
-47.029999999999973
 20
20.283000000000008
 30
0.0
 11
-52.97000000000002
 21
19.608000000000001
 31
0.0
  0
LINE
  5
312
  8
DATA
  6
CONTINUOUS
 62
     7
 10
-47.029999999999973
 20
20.283000000000008
 30
0.0
 11
-52.97000000000002
 21
19.608000000000001
 31
0.0
  0
LINE
  5
313
  8
DATA
  6
CONTINUOUS
 62
     7
 10
-47.029999999999973
 20
21.768000000000001
 30
0.0
 11
-52.97000000000002
 21
21.093000000000011
 31
0.0
  0
LINE
  5
314
  8
DATA
  6
CONTINUOUS
 62
     7
 10
-47.029999999999973
 20
22.263000000000002
 30
0.0
 11
-52.97000000000002
 21
21.588000000000012
 31
0.0
  0
LINE
  5
315
  8
DATA
  6
CONTINUOUS
 62
     7
 10
-47.029999999999973
 20
22.263000000000002
 30
0.0
 11
-52.97000000000002
 21
21.588000000000012
 31
0.0
  0
LINE
  5
316
  8
DATA
  6
CONTINUOUS
 62
     7
 10
-47.029999999999973
 20
23.748000000000001
 30
0.0
 11
-52.97000000000002
 21
23.073000000000011
 31
0.0
  0
LINE
  5
317
  8
DATA
  6
CONTINUOUS
 62
     7
 10
-47.029999999999973
 20
24.242999999999999
 30
0.0
 11
-52.97000000000002
 21
23.568000000000008
 31
0.0
  0
LINE
  5
318
  8
DATA
  6
CONTINUOUS
 62
     7
 10
-47.029999999999973
 20
24.242999999999999
 30
0.0
 11
-52.97000000000002
 21
23.568000000000008
 31
0.0
  0
LINE
  5
319
  8
DATA
  6
CONTINUOUS
 62
     7
 10
-47.029999999999973
 20
25.728000000000002
 30
0.0
 11
-52.97000000000002
 21
25.053000000000019
 31
0.0
  0
LINE
  5
31A
  8
DATA
  6
CONTINUOUS
 62
     7
 10
-47.029999999999973
 20
26.22300000000001
 30
0.0
 11
-52.97000000000002
 21
25.54800000000002
 31
0.0
  0
LINE
  5
31B
  8
DATA
  6
CONTINUOUS
 62
     7
 10
-47.029999999999973
 20
26.22300000000001
 30
0.0
 11
-52.97000000000002
 21
25.54800000000002
 31
0.0
  0
LINE
  5
31C
  8
DATA
  6
CONTINUOUS
 62
     7
 10
-47.029999999999973
 20
27.707999999999991
 30
0.0
 11
-52.97000000000002
 21
27.033000000000008
 31
0.0
  0
LINE
  5
31D
  8
DATA
  6
CONTINUOUS
 62
     7
 10
-47.029999999999973
 20
28.202999999999999
 30
0.0
 11
-52.97000000000002
 21
27.528000000000009
 31
0.0
  0
LINE
  5
31E
  8
DATA
  6
CONTINUOUS
 62
     7
 10
-47.029999999999973
 20
28.202999999999999
 30
0.0
 11
-52.97000000000002
 21
27.528000000000009
 31
0.0
  0
LINE
  5
31F
  8
DATA
  6
CONTINUOUS
 62
     7
 10
-47.029999999999973
 20
29.688000000000009
 30
0.0
 11
-52.97000000000002
 21
29.013000000000009
 31
0.0
  0
LINE
  5
320
  8
DATA
  6
CONTINUOUS
 62
     7
 10
-47.029999999999973
 20
30.183
 30
0.0
 11
-52.97000000000002
 21
29.50800000000001
 31
0.0
  0
LINE
  5
321
  8
DATA
  6
CONTINUOUS
 62
     7
 10
-47.029999999999973
 20
30.183
 30
0.0
 11
-52.97000000000002
 21
29.50800000000001
 31
0.0
  0
LINE
  5
322
  8
DATA
  6
CONTINUOUS
 62
     7
 10
-47.029999999999973
 20
31.667999999999999
 30
0.0
 11
-52.97000000000002
 21
30.993000000000009
 31
0.0
  0
LINE
  5
323
  8
DATA
  6
CONTINUOUS
 62
     7
 10
-47.029999999999973
 20
32.162999999999997
 30
0.0
 11
-52.97000000000002
 21
31.488000000000021
 31
0.0
  0
LINE
  5
324
  8
DATA
  6
CONTINUOUS
 62
     7
 10
-47.029999999999973
 20
32.162999999999997
 30
0.0
 11
-52.97000000000002
 21
31.488000000000021
 31
0.0
  0
LINE
  5
325
  8
DATA
  6
CONTINUOUS
 62
     7
 10
-47.029999999999973
 20
33.64800000000001
 30
0.0
 11
-52.97000000000002
 21
32.973000000000013
 31
0.0
  0
LINE
  5
326
  8
DATA
  6
CONTINUOUS
 62
     7
 10
-47.029999999999973
 20
34.142999999999986
 30
0.0
 11
-52.97000000000002
 21
33.468000000000011
 31
0.0
  0
LINE
  5
327
  8
DATA
  6
CONTINUOUS
 62
     7
 10
-47.029999999999973
 20
-3.4769999999999959
 30
0.0
 11
-52.97000000000002
 21
-4.1519999999999859
 31
0.0
  0
LINE
  5
328
  8
DATA
  6
CONTINUOUS
 62
     7
 10
-47.029999999999973
 20
-1.9919999999999971
 30
0.0
 11
-52.97000000000002
 21
-2.6669999999999869
 31
0.0
  0
LINE
  5
329
  8
DATA
  6
CONTINUOUS
 62
     7
 10
-47.029999999999973
 20
-1.4970000000000001
 30
0.0
 11
-52.97000000000002
 21
-2.1719999999999891
 31
0.0
  0
LINE
  5
32A
  8
DATA
  6
CONTINUOUS
 62
     7
 10
-47.029999999999973
 20
-1.4970000000000001
 30
0.0
 11
-52.97000000000002
 21
-2.1719999999999891
 31
0.0
  0
LINE
  5
32B
  8
DATA
  6
CONTINUOUS
 62
     7
 10
-47.029999999999973
 20
-0.0120000000000005
 30
0.0
 11
-52.97000000000002
 21
-0.6869999999999905
 31
0.0
  0
LINE
  5
32C
  8
DATA
  6
CONTINUOUS
 62
     7
 10
-47.029999999999973
 20
0.4829999999999971
 30
0.0
 11
-52.97000000000002
 21
-0.1919999999999931
 31
0.0
  0
LINE
  5
32D
  8
DATA
  6
CONTINUOUS
 62
     7
 10
-47.029999999999973
 20
0.4829999999999971
 30
0.0
 11
-52.97000000000002
 21
-0.1919999999999931
 31
0.0
  0
LINE
  5
32E
  8
DATA
  6
CONTINUOUS
 62
     7
 10
-47.029999999999973
 20
1.967999999999996
 30
0.0
 11
-52.97000000000002
 21
1.2930000000000059
 31
0.0
  0
LINE
  5
32F
  8
DATA
  6
CONTINUOUS
 62
     7
 10
-47.029999999999973
 20
2.4630000000000001
 30
0.0
 11
-52.97000000000002
 21
1.7880000000000029
 31
0.0
  0
LINE
  5
330
  8
DATA
  6
CONTINUOUS
 62
     7
 10
-47.029999999999973
 20
2.4630000000000001
 30
0.0
 11
-52.97000000000002
 21
1.7880000000000029
 31
0.0
  0
LINE
  5
331
  8
DATA
  6
CONTINUOUS
 62
     7
 10
-47.029999999999973
 20
3.948
 30
0.0
 11
-52.97000000000002
 21
3.2730000000000099
 31
0.0
  0
LINE
  5
332
  8
DATA
  6
CONTINUOUS
 62
     7
 10
-47.029999999999973
 20
4.4430000000000041
 30
0.0
 11
-52.97000000000002
 21
3.7680000000000069
 31
0.0
  0
LINE
  5
333
  8
DATA
  6
CONTINUOUS
 62
     7
 10
-47.029999999999973
 20
4.4430000000000041
 30
0.0
 11
-52.97000000000002
 21
3.7680000000000069
 31
0.0
  0
LINE
  5
334
  8
DATA
  6
CONTINUOUS
 62
     7
 10
-47.029999999999973
 20
5.9280000000000044
 30
0.0
 11
-52.97000000000002
 21
5.2530000000000072
 31
0.0
  0
LINE
  5
335
  8
DATA
  6
CONTINUOUS
 62
     7
 10
-47.029999999999973
 20
6.4229999999999938
 30
0.0
 11
-52.97000000000002
 21
5.7480000000000109
 31
0.0
  0
LINE
  5
336
  8
DATA
  6
CONTINUOUS
 62
     7
 10
-47.029999999999973
 20
6.4229999999999938
 30
0.0
 11
-52.97000000000002
 21
5.7480000000000109
 31
0.0
  0
LINE
  5
337
  8
DATA
  6
CONTINUOUS
 62
     7
 10
-47.029999999999973
 20
7.9080000000000084
 30
0.0
 11
-52.97000000000002
 21
7.2330000000000112
 31
0.0
  0
LINE
  5
338
  8
DATA
  6
CONTINUOUS
 62
     7
 10
-47.029999999999973
 20
8.4029999999999987
 30
0.0
 11
-52.97000000000002
 21
7.7280000000000006
 31
0.0
  0
LINE
  5
339
  8
DATA
  6
CONTINUOUS
 62
     7
 10
-47.029999999999973
 20
8.4029999999999987
 30
0.0
 11
-52.97000000000002
 21
7.7280000000000006
 31
0.0
  0
LINE
  5
33A
  8
DATA
  6
CONTINUOUS
 62
     7
 10
-47.029999999999973
 20
9.8879999999999981
 30
0.0
 11
-52.97000000000002
 21
9.2130000000000152
 31
0.0
  0
LINE
  5
33B
  8
DATA
  6
CONTINUOUS
 62
     7
 10
-47.029999999999973
 20
10.382999999999999
 30
0.0
 11
-52.97000000000002
 21
9.7080000000000037
 31
0.0
  0
LINE
  5
33C
  8
DATA
  6
CONTINUOUS
 62
     7
 10
-47.029999999999973
 20
10.382999999999999
 30
0.0
 11
-52.97000000000002
 21
9.7080000000000037
 31
0.0
  0
LINE
  5
33D
  8
DATA
  6
CONTINUOUS
 62
     7
 10
-47.029999999999973
 20
11.868
 30
0.0
 11
-52.97000000000002
 21
11.193
 31
0.0
  0
LINE
  5
33E
  8
DATA
  6
CONTINUOUS
 62
     7
 10
-47.029999999999973
 20
12.362999999999991
 30
0.0
 11
-52.97000000000002
 21
11.688000000000001
 31
0.0
  0
LINE
  5
33F
  8
DATA
  6
CONTINUOUS
 62
     7
 10
-47.029999999999973
 20
12.362999999999991
 30
0.0
 11
-52.97000000000002
 21
11.688000000000001
 31
0.0
  0
LINE
  5
340
  8
DATA
  6
CONTINUOUS
 62
     7
 10
-47.029999999999973
 20
13.848000000000001
 30
0.0
 11
-52.97000000000002
 21
13.173000000000011
 31
0.0
  0
LINE
  5
341
  8
DATA
  6
CONTINUOUS
 62
     7
 10
-47.029999999999973
 20
14.342999999999989
 30
0.0
 11
-52.97000000000002
 21
13.66800000000001
 31
0.0
  0
LINE
  5
342
  8
DATA
  6
CONTINUOUS
 62
     7
 10
-47.029999999999973
 20
14.342999999999989
 30
0.0
 11
-52.97000000000002
 21
13.66800000000001
 31
0.0
  0
LINE
  5
343
  8
DATA
  6
CONTINUOUS
 62
     7
 10
-47.029999999999973
 20
15.827999999999991
 30
0.0
 11
-52.97000000000002
 21
15.153000000000009
 31
0.0
  0
LINE
  5
344
  8
DATA
  6
CONTINUOUS
 62
     7
 10
-47.029999999999973
 20
16.323
 30
0.0
 11
-52.97000000000002
 21
15.64800000000001
 31
0.0
  0
LINE
  5
345
  8
DATA
  6
CONTINUOUS
 62
     7
 10
-47.029999999999973
 20
16.323
 30
0.0
 11
-52.97000000000002
 21
15.64800000000001
 31
0.0
  0
LINE
  5
346
  8
DATA
  6
CONTINUOUS
 62
     7
 10
-47.029999999999973
 20
17.808
 30
0.0
 11
-52.97000000000002
 21
17.132999999999999
 31
0.0
  0
LINE
  5
347
  8
DATA
  6
CONTINUOUS
 62
     7
 10
-47.029999999999973
 20
18.30299999999999
 30
0.0
 11
-52.97000000000002
 21
17.628000000000011
 31
0.0
  0
LINE
  5
348
  8
DATA
  6
CONTINUOUS
 62
     7
 10
-47.029999999999973
 20
18.30299999999999
 30
0.0
 11
-52.97000000000002
 21
17.628000000000011
 31
0.0
  0
LINE
  5
349
  8
DATA
  6
CONTINUOUS
 62
     7
 10
-47.029999999999973
 20
19.788
 30
0.0
 11
-52.97000000000002
 21
19.113
 31
0.0
  0
LINE
  5
34A
  8
DATA
  6
CONTINUOUS
 62
     7
 10
-47.029999999999973
 20
20.283000000000008
 30
0.0
 11
-52.97000000000002
 21
19.608000000000001
 31
0.0
  0
LINE
  5
34B
  8
DATA
  6
CONTINUOUS
 62
     7
 10
-47.029999999999973
 20
20.283000000000008
 30
0.0
 11
-52.97000000000002
 21
19.608000000000001
 31
0.0
  0
LINE
  5
34C
  8
DATA
  6
CONTINUOUS
 62
     7
 10
-47.029999999999973
 20
21.768000000000001
 30
0.0
 11
-52.97000000000002
 21
21.093000000000011
 31
0.0
  0
LINE
  5
34D
  8
DATA
  6
CONTINUOUS
 62
     7
 10
-47.029999999999973
 20
22.263000000000002
 30
0.0
 11
-52.97000000000002
 21
21.588000000000012
 31
0.0
  0
LINE
  5
34E
  8
DATA
  6
CONTINUOUS
 62
     7
 10
-47.029999999999973
 20
22.263000000000002
 30
0.0
 11
-52.97000000000002
 21
21.588000000000012
 31
0.0
  0
LINE
  5
34F
  8
DATA
  6
CONTINUOUS
 62
     7
 10
-47.029999999999973
 20
23.748000000000001
 30
0.0
 11
-52.97000000000002
 21
23.073000000000011
 31
0.0
  0
LINE
  5
350
  8
DATA
  6
CONTINUOUS
 62
     7
 10
-47.029999999999973
 20
24.242999999999999
 30
0.0
 11
-52.97000000000002
 21
23.568000000000008
 31
0.0
  0
LINE
  5
351
  8
DATA
  6
CONTINUOUS
 62
     7
 10
-47.029999999999973
 20
24.242999999999999
 30
0.0
 11
-52.97000000000002
 21
23.568000000000008
 31
0.0
  0
LINE
  5
352
  8
DATA
  6
CONTINUOUS
 62
     7
 10
-47.029999999999973
 20
25.728000000000002
 30
0.0
 11
-52.97000000000002
 21
25.053000000000019
 31
0.0
  0
LINE
  5
353
  8
DATA
  6
CONTINUOUS
 62
     7
 10
-47.029999999999973
 20
26.22300000000001
 30
0.0
 11
-52.97000000000002
 21
25.54800000000002
 31
0.0
  0
LINE
  5
354
  8
DATA
  6
CONTINUOUS
 62
     7
 10
-47.029999999999973
 20
26.22300000000001
 30
0.0
 11
-52.97000000000002
 21
25.54800000000002
 31
0.0
  0
LINE
  5
355
  8
DATA
  6
CONTINUOUS
 62
     7
 10
-47.029999999999973
 20
27.707999999999991
 30
0.0
 11
-52.97000000000002
 21
27.033000000000008
 31
0.0
  0
LINE
  5
356
  8
DATA
  6
CONTINUOUS
 62
     7
 10
-47.029999999999973
 20
28.202999999999999
 30
0.0
 11
-52.97000000000002
 21
27.528000000000009
 31
0.0
  0
LINE
  5
357
  8
DATA
  6
CONTINUOUS
 62
     7
 10
-47.029999999999973
 20
28.202999999999999
 30
0.0
 11
-52.97000000000002
 21
27.528000000000009
 31
0.0
  0
LINE
  5
358
  8
DATA
  6
CONTINUOUS
 62
     7
 10
-47.029999999999973
 20
29.688000000000009
 30
0.0
 11
-52.97000000000002
 21
29.013000000000009
 31
0.0
  0
LINE
  5
359
  8
DATA
  6
CONTINUOUS
 62
     7
 10
-47.029999999999973
 20
30.183
 30
0.0
 11
-52.97000000000002
 21
29.50800000000001
 31
0.0
  0
LINE
  5
35A
  8
DATA
  6
CONTINUOUS
 62
     7
 10
-47.029999999999973
 20
30.183
 30
0.0
 11
-52.97000000000002
 21
29.50800000000001
 31
0.0
  0
LINE
  5
35B
  8
DATA
  6
CONTINUOUS
 62
     7
 10
-47.029999999999973
 20
31.667999999999999
 30
0.0
 11
-52.97000000000002
 21
30.993000000000009
 31
0.0
  0
LINE
  5
35C
  8
DATA
  6
CONTINUOUS
 62
     7
 10
-47.029999999999973
 20
32.162999999999997
 30
0.0
 11
-52.97000000000002
 21
31.488000000000021
 31
0.0
  0
LINE
  5
35D
  8
DATA
  6
CONTINUOUS
 62
     7
 10
-47.029999999999973
 20
32.162999999999997
 30
0.0
 11
-52.97000000000002
 21
31.488000000000021
 31
0.0
  0
LINE
  5
35E
  8
DATA
  6
CONTINUOUS
 62
     7
 10
-47.029999999999973
 20
33.64800000000001
 30
0.0
 11
-52.97000000000002
 21
32.973000000000013
 31
0.0
  0
LINE
  5
35F
  8
DATA
  6
CONTINUOUS
 62
     7
 10
-47.029999999999973
 20
34.142999999999986
 30
0.0
 11
-52.97000000000002
 21
33.468000000000011
 31
0.0
  0
LINE
  5
360
  8
DATA
  6
CONTINUOUS
 62
     7
 10
-47.029999999999973
 20
34.142999999999986
 30
0.0
 11
-52.97000000000002
 21
33.468000000000011
 31
0.0
  0
LINE
  5
361
  8
DATA
  6
CONTINUOUS
 62
     7
 10
-47.029999999999973
 20
35.628000000000007
 30
0.0
 11
-52.97000000000002
 21
34.953000000000017
 31
0.0
  0
LINE
  5
362
  8
DATA
  6
CONTINUOUS
 62
     7
 10
-47.029999999999973
 20
36.123000000000012
 30
0.0
 11
-52.97000000000002
 21
35.448000000000008
 31
0.0
  0
TEXT
  5
363
  8
DATA
 62
     7
 10
-55.711547187500003
 20
-78.793287499999977
 30
0.0
 40
2.750343749999999
  1
GNK15 M
 41
0.7
 72
     1
 11
-50.0
 21
-79.159999999999982
 31
0.0
 73
     1
  0
POLYLINE
  5
364
  8
DATA
  6
CONTINUOUS
 62
     7
 66
     1
 10
0.0
 20
0.0
 30
0.0
 70
     1
  0
VERTEX
  5
7A0
  8
DATA
  6
CONTINUOUS
 62
     7
 10
-52.831800143935197
 20
-67.280000000000001
 30
0.0
  0
VERTEX
  5
7A1
  8
DATA
  6
CONTINUOUS
 62
     7
 10
-52.570083787672282
 20
-66.717777777777783
 30
0.0
  0
VERTEX
  5
7A2
  8
DATA
  6
CONTINUOUS
 62
     7
 10
-51.822995418369942
 20
-66.717777777777783
 30
0.0
  0
VERTEX
  5
7A3
  8
DATA
  6
CONTINUOUS
 62
     7
 10
-51.579328465987203
 20
-67.280000000000001
 30
0.0
  0
VERTEX
  5
7A4
  8
DATA
  6
CONTINUOUS
 62
     7
 10
-51.046842588843333
 20
-67.280000000000001
 30
0.0
  0
VERTEX
  5
7A5
  8
DATA
  6
CONTINUOUS
 62
     7
 10
-52.004274213862459
 20
-65.299999999999983
 30
0.0
  0
VERTEX
  5
7A6
  8
DATA
  6
CONTINUOUS
 62
     7
 10
-52.406854396059998
 20
-65.299999999999983
 30
0.0
  0
VERTEX
  5
7A7
  8
DATA
  6
CONTINUOUS
 62
     7
 10
-53.323842588843313
 20
-67.280000000000001
 30
0.0
  0
SEQEND
  5
7A8
  8
DATA
  6
CONTINUOUS
 62
     7
  0
POLYLINE
  5
36F
  8
DATA
  6
CONTINUOUS
 62
     7
 66
     1
 10
0.0
 20
0.0
 30
0.0
 70
     1
  0
VERTEX
  5
7A9
  8
DATA
  6
CONTINUOUS
 62
     7
 10
-52.40108469404197
 20
-66.501923674319357
 30
0.0
  0
VERTEX
  5
7AA
  8
DATA
  6
CONTINUOUS
 62
     7
 10
-51.915315305958082
 20
-66.501923674319357
 30
0.0
  0
VERTEX
  5
7AB
  8
DATA
  6
CONTINUOUS
 62
     7
 10
-52.149525546641371
 20
-65.969288888888855
 30
0.0
  0
SEQEND
  5
7AC
  8
DATA
  6
CONTINUOUS
 62
     7
  0
POLYLINE
  5
375
  8
DATA
  6
CONTINUOUS
 62
     7
 66
     1
 10
0.0
 20
0.0
 30
0.0
 70
     1
  0
VERTEX
  5
7AD
  8
DATA
  6
CONTINUOUS
 62
     7
 10
-49.578153405161743
 20
-66.098368852197439
 30
0.0
  0
VERTEX
  5
7AE
  8
DATA
  6
CONTINUOUS
 62
     7
 10
-48.458075000000008
 20
-67.281007907321936
 30
0.0
  0
VERTEX
  5
7AF
  8
DATA
  6
CONTINUOUS
 62
     7
 10
-49.037587268169538
 20
-67.281007907321936
 30
0.0
  0
VERTEX
  5
7B0
  8
DATA
  6
CONTINUOUS
 62
     7
 10
-49.89031935348828
 20
-66.338991353466611
 30
0.0
  0
VERTEX
  5
7B1
  8
DATA
  6
CONTINUOUS
 62
     7
 10
-50.170676735587683
 20
-66.555095303598506
 30
0.0
  0
VERTEX
  5
7B2
  8
DATA
  6
CONTINUOUS
 62
     7
 10
-50.170676735587683
 20
-67.27976793982161
 30
0.0
  0
VERTEX
  5
7B3
  8
DATA
  6
CONTINUOUS
 62
     7
 10
-50.735075000000052
 20
-67.27976793982161
 30
0.0
  0
VERTEX
  5
7B4
  8
DATA
  6
CONTINUOUS
 62
     7
 10
-50.735075000000052
 20
-65.299999999999983
 30
0.0
  0
VERTEX
  5
7B5
  8
DATA
  6
CONTINUOUS
 62
     7
 10
-50.170676735587683
 20
-65.299999999999983
 30
0.0
  0
VERTEX
  5
7B6
  8
DATA
  6
CONTINUOUS
 62
     7
 10
-50.170676735587683
 20
-66.122727596272142
 30
0.0
  0
VERTEX
  5
7B7
  8
DATA
  6
CONTINUOUS
 62
     7
 10
-49.120694047619068
 20
-65.299999999999983
 30
0.0
  0
VERTEX
  5
7B8
  8
DATA
  6
CONTINUOUS
 62
     7
 10
-48.542408333333348
 20
-65.299999999999983
 30
0.0
  0
SEQEND
  5
7B9
  8
DATA
  6
CONTINUOUS
 62
     7
  0
POLYLINE
  5
384
  8
DATA
  6
CONTINUOUS
 62
     7
 66
     1
 10
0.0
 20
0.0
 30
0.0
 70
   129
  0
VERTEX
  5
7BA
  8
DATA
  6
CONTINUOUS
 62
     7
 10
-46.911203441387997
 20
-67.283044371069167
 30
0.0
  0
VERTEX
  5
7BB
  8
DATA
  6
CONTINUOUS
 62
     7
 10
-46.541561687931171
 20
-67.283044371069167
 30
0.0
  0
VERTEX
  5
7BC
  8
DATA
  6
CONTINUOUS
 62
     7
 10
-46.538280843965588
 20
-66.187834423212678
 30
0.0
  0
VERTEX
  5
7BD
  8
DATA
  6
CONTINUOUS
 62
     7
 10
-47.528002106919637
 20
-66.187834423212678
 30
0.0
  0
VERTEX
  5
7BE
  8
DATA
  6
CONTINUOUS
 62
     7
 10
-47.528002106919637
 20
-66.418964872230845
 30
0.0
  0
VERTEX
  5
7BF
  8
DATA
  6
CONTINUOUS
 62
     7
 10
-46.976820320699922
 20
-66.418964872230845
 30
0.0
  0
VERTEX
  5
7C0
  8
DATA
  6
CONTINUOUS
 62
     7
 10
-46.976820320699922
 20
-66.62319124781834
 30
0.0
  0
VERTEX
  5
7C1
  8
DATA
  6
CONTINUOUS
 62
     7
 10
-46.9899436965623
 20
-66.736922103684407
 30
0.0
  0
VERTEX
  5
7C2
  8
DATA
  6
CONTINUOUS
 62
     7
 10
-47.042849637534331
 20
-66.854091096885242
 30
0.0
  0
VERTEX
  5
7C3
  8
DATA
  6
CONTINUOUS
 62
     7
 10
-47.112303496246852
 20
-66.921351280461934
 30
0.0
  0
VERTEX
  5
7C4
  8
DATA
  6
CONTINUOUS
 62
     7
 10
-47.196636866394662
 20
-66.985784782918273
 30
0.0
  0
VERTEX
  5
7C5
  8
DATA
  6
CONTINUOUS
 62
     7
 10
-47.268815433637762
 20
-67.013911768777604
 30
0.0
  0
VERTEX
  5
7C6
  8
DATA
  6
CONTINUOUS
 62
     7
 10
-47.368993314249003
 20
-67.030421086564616
 30
0.0
  0
VERTEX
  5
7C7
  8
DATA
  6
CONTINUOUS
 62
     7
 10
-47.471134144849323
 20
-67.042650210851292
 30
0.0
  0
VERTEX
  5
7C8
  8
DATA
  6
CONTINUOUS
 62
     7
 10
-47.55862331726518
 20
-67.031643998993303
 30
0.0
  0
VERTEX
  5
7C9
  8
DATA
  6
CONTINUOUS
 62
     7
 10
-47.642396978048438
 20
-67.012077400134615
 30
0.0
  0
VERTEX
  5
7CA
  8
DATA
  6
CONTINUOUS
 62
     7
 10
-47.711729368992891
 20
-66.975390027274585
 30
0.0
  0
VERTEX
  5
7CB
  8
DATA
  6
CONTINUOUS
 62
     7
 10
-47.799218541408649
 20
-66.926473530127865
 30
0.0
  0
VERTEX
  5
7CC
  8
DATA
  6
CONTINUOUS
 62
     7
 10
-47.86867240012122
 20
-66.859213346551172
 30
0.0
  0
VERTEX
  5
7CD
  8
DATA
  6
CONTINUOUS
 62
     7
 10
-47.930452300032456
 20
-66.736922103684407
 30
0.0
  0
VERTEX
  5
7CE
  8
DATA
  6
CONTINUOUS
 62
     7
 10
-47.985133032792312
 20
-66.577943487957612
 30
0.0
  0
VERTEX
  5
7CF
  8
DATA
  6
CONTINUOUS
 62
     7
 10
-47.985133032792312
 20
-66.137695013637284
 30
0.0
  0
VERTEX
  5
7D0
  8
DATA
  6
CONTINUOUS
 62
     7
 10
-47.941388446584419
 20
-65.948143587193812
 30
0.0
  0
VERTEX
  5
7D1
  8
DATA
  6
CONTINUOUS
 62
     7
 10
-47.832026981064637
 20
-65.764706722893663
 30
0.0
  0
VERTEX
  5
7D2
  8
DATA
  6
CONTINUOUS
 62
     7
 10
-47.756259135196487
 20
-65.691331977173604
 30
0.0
  0
VERTEX
  5
7D3
  8
DATA
  6
CONTINUOUS
 62
     7
 10
-47.66798478278497
 20
-65.605845738419191
 30
0.0
  0
VERTEX
  5
7D4
  8
DATA
  6
CONTINUOUS
 62
     7
 10
-47.602367903473123
 20
-65.572493581273704
 30
0.0
  0
VERTEX
  5
7D5
  8
DATA
  6
CONTINUOUS
 62
     7
 10
-47.493006437953277
 20
-65.544700116985823
 30
0.0
  0
VERTEX
  5
7D6
  8
DATA
  6
CONTINUOUS
 62
     7
 10
-47.414266182779102
 20
-65.537245011161502
 30
0.0
  0
VERTEX
  5
7D7
  8
DATA
  6
CONTINUOUS
 62
     7
 10
-47.319121707776851
 20
-65.544732742045312
 30
0.0
  0
VERTEX
  5
7D8
  8
DATA
  6
CONTINUOUS
 62
     7
 10
-47.198824095705042
 20
-65.583565427139064
 30
0.0
  0
VERTEX
  5
7D9
  8
DATA
  6
CONTINUOUS
 62
     7
 10
-47.110241308634038
 20
-65.637523830312261
 30
0.0
  0
VERTEX
  5
7DA
  8
DATA
  6
CONTINUOUS
 62
     7
 10
-47.066496722426102
 20
-65.691331977173604
 30
0.0
  0
VERTEX
  5
7DB
  8
DATA
  6
CONTINUOUS
 62
     7
 10
-47.027126594839039
 20
-65.764706722893663
 30
0.0
  0
VERTEX
  5
7DC
  8
DATA
  6
CONTINUOUS
 62
     7
 10
-47.011815989666282
 20
-65.817660384385178
 30
0.0
  0
VERTEX
  5
7DD
  8
DATA
  6
CONTINUOUS
 62
     7
 10
-46.994318155183123
 20
-65.955481061765823
 30
0.0
  0
VERTEX
  5
7DE
  8
DATA
  6
CONTINUOUS
 62
     7
 10
-46.537187229310341
 20
-65.955481061765823
 30
0.0
  0
VERTEX
  5
7DF
  8
DATA
  6
CONTINUOUS
 62
     7
 10
-46.534999999999961
 20
-65.869877191759073
 30
0.0
  0
VERTEX
  5
7E0
  8
DATA
  6
CONTINUOUS
 62
     7
 10
-46.541561687931171
 20
-65.813623220040384
 30
0.0
  0
VERTEX
  5
7E1
  8
DATA
  6
CONTINUOUS
 62
     7
 10
-46.585306274139093
 20
-65.703561101460281
 30
0.0
  0
VERTEX
  5
7E2
  8
DATA
  6
CONTINUOUS
 62
     7
 10
-46.639987006898991
 20
-65.59961354502353
 30
0.0
  0
VERTEX
  5
7E3
  8
DATA
  6
CONTINUOUS
 62
     7
 10
-46.734696814234212
 20
-65.507895112873484
 30
0.0
  0
VERTEX
  5
7E4
  8
DATA
  6
CONTINUOUS
 62
     7
 10
-46.843399332765777
 20
-65.421068330438089
 30
0.0
  0
VERTEX
  5
7E5
  8
DATA
  6
CONTINUOUS
 62
     7
 10
-47.001973457769452
 20
-65.352241490063349
 30
0.0
  0
VERTEX
  5
7E6
  8
DATA
  6
CONTINUOUS
 62
     7
 10
-47.227258076740199
 20
-65.309021622782041
 30
0.0
  0
VERTEX
  5
7E7
  8
DATA
  6
CONTINUOUS
 62
     7
 10
-47.449261851745412
 20
-65.299999999999983
 30
0.0
  0
VERTEX
  5
7E8
  8
DATA
  6
CONTINUOUS
 62
     7
 10
-47.628614655197786
 20
-65.312229124286645
 30
0.0
  0
VERTEX
  5
7E9
  8
DATA
  6
CONTINUOUS
 62
     7
 10
-47.833779021567459
 20
-65.370689087874098
 30
0.0
  0
VERTEX
  5
7EA
  8
DATA
  6
CONTINUOUS
 62
     7
 10
-48.081147885409678
 20
-65.485291008362765
 30
0.0
  0
VERTEX
  5
7EB
  8
DATA
  6
CONTINUOUS
 62
     7
 10
-48.197294275900717
 20
-65.573932384021532
 30
0.0
  0
VERTEX
  5
7EC
  8
DATA
  6
CONTINUOUS
 62
     7
 10
-48.286970677626933
 20
-65.679102852886928
 30
0.0
  0
VERTEX
  5
7ED
  8
DATA
  6
CONTINUOUS
 62
     7
 10
-48.385395996594752
 20
-65.831206526102363
 30
0.0
  0
VERTEX
  5
7EE
  8
DATA
  6
CONTINUOUS
 62
     7
 10
-48.440076729354637
 20
-65.976270573053171
 30
0.0
  0
VERTEX
  5
7EF
  8
DATA
  6
CONTINUOUS
 62
     7
 10
-48.47069793970018
 20
-66.107122202920607
 30
0.0
  0
VERTEX
  5
7F0
  8
DATA
  6
CONTINUOUS
 62
     7
 10
-48.483978351561689
 20
-66.204955197213991
 30
0.0
  0
VERTEX
  5
7F1
  8
DATA
  6
CONTINUOUS
 62
     7
 10
-48.483978351561689
 20
-66.396952448514796
 30
0.0
  0
VERTEX
  5
7F2
  8
DATA
  6
CONTINUOUS
 62
     7
 10
-48.468824782388019
 20
-66.570606013385614
 30
0.0
  0
VERTEX
  5
7F3
  8
DATA
  6
CONTINUOUS
 62
     7
 10
-48.424766124181872
 20
-66.723470066969071
 30
0.0
  0
VERTEX
  5
7F4
  8
DATA
  6
CONTINUOUS
 62
     7
 10
-48.367898162111587
 20
-66.859213346551172
 30
0.0
  0
VERTEX
  5
7F5
  8
DATA
  6
CONTINUOUS
 62
     7
 10
-48.251975008660622
 20
-67.020637787135314
 30
0.0
  0
VERTEX
  5
7F6
  8
DATA
  6
CONTINUOUS
 62
     7
 10
-48.085745581070569
 20
-67.149043592145404
 30
0.0
  0
VERTEX
  5
7F7
  8
DATA
  6
CONTINUOUS
 62
     7
 10
-47.887801328479732
 20
-67.234143909975614
 30
0.0
  0
VERTEX
  5
7F8
  8
DATA
  6
CONTINUOUS
 62
     7
 10
-47.790469624167088
 20
-67.256659885868146
 30
0.0
  0
VERTEX
  5
7F9
  8
DATA
  6
CONTINUOUS
 62
     7
 10
-47.62408597924729
 20
-67.279283765798453
 30
0.0
  0
VERTEX
  5
7FA
  8
DATA
  6
CONTINUOUS
 62
     7
 10
-47.427543775971223
 20
-67.282952503084474
 30
0.0
  0
VERTEX
  5
7FB
  8
DATA
  6
CONTINUOUS
 62
     7
 10
-47.26803025364211
 20
-67.256659885868146
 30
0.0
  0
VERTEX
  5
7FC
  8
DATA
  6
CONTINUOUS
 62
     7
 10
-47.108632444903087
 20
-67.200070778229161
 30
0.0
  0
VERTEX
  5
7FD
  8
DATA
  6
CONTINUOUS
 62
     7
 10
-47.01957291249596
 20
-67.150276269462154
 30
0.0
  0
VERTEX
  5
7FE
  8
DATA
  6
CONTINUOUS
 62
     7
 10
-46.963696944837579
 20
-67.105018744713362
 30
0.0
  0
SEQEND
  5
7FF
  8
DATA
  6
CONTINUOUS
 62
     7
  0
LINE
  5
3CB
  8
DATA
  6
CONTINUOUS
 62
     7
 10
-47.029999999999973
 20
37.623000000000012
 30
0.0
 11
-52.97000000000002
 21
36.948000000000022
 31
0.0
  0
LINE
  5
3CC
  8
DATA
  6
CONTINUOUS
 62
     7
 10
-48.966000000000051
 20
37.90300000000002
 30
0.0
 11
-52.97000000000002
 21
37.448000000000008
 31
0.0
  0
LINE
  5
3CD
  8
DATA
  6
CONTINUOUS
 62
     7
 10
10.5
 20
-95.0
 30
0.0
 11
29.5
 21
-95.0
 31
0.0
  0
LINE
  5
3CE
  8
DATA
  6
CONTINUOUS
 62
     7
 10
11.08999999999997
 20
-81.139999999999986
 30
0.0
 11
28.909999999999972
 21
-81.139999999999986
 31
0.0
  0
LINE
  5
3CF
  8
DATA
  6
CONTINUOUS
 62
     7
 10
28.909999999999972
 20
-81.139999999999986
 30
0.0
 11
29.5
 21
-95.0
 31
0.0
  0
LINE
  5
3D0
  8
DATA
  6
CONTINUOUS
 62
     7
 10
11.08999999999997
 20
-81.139999999999986
 30
0.0
 11
10.5
 21
-95.0
 31
0.0
  0
LINE
  5
3D1
  8
DATA
  6
CONTINUOUS
 62
     7
 10
16.287499999999959
 20
-27.20000000000001
 30
0.0
 11
23.712499999999981
 21
-27.20000000000001
 31
0.0
  0
LINE
  5
3D2
  8
DATA
  6
CONTINUOUS
 62
     7
 10
24.454999999999991
 20
-47.776999999999987
 30
0.0
 11
28.909999999999972
 21
-81.139999999999986
 31
0.0
  0
LINE
  5
3D3
  8
DATA
  6
CONTINUOUS
 62
     7
 10
15.544999999999961
 20
-47.776999999999987
 30
0.0
 11
11.08999999999997
 21
-81.139999999999986
 31
0.0
  0
LINE
  5
3D4
  8
DATA
  6
CONTINUOUS
 62
     7
 10
24.454999999999991
 20
-47.776999999999987
 30
0.0
 11
23.86099999999999
 21
-42.826999999999998
 31
0.0
  0
LINE
  5
3D5
  8
DATA
  6
CONTINUOUS
 62
     7
 10
23.86099999999999
 20
-42.826999999999998
 30
0.0
 11
23.712499999999981
 21
-37.876999999999988
 31
0.0
  0
LINE
  5
3D6
  8
DATA
  6
CONTINUOUS
 62
     7
 10
23.712499999999981
 20
-37.876999999999988
 30
0.0
 11
23.712499999999981
 21
-27.20000000000001
 31
0.0
  0
LINE
  5
3D7
  8
DATA
  6
CONTINUOUS
 62
     7
 10
15.544999999999961
 20
-47.776999999999987
 30
0.0
 11
16.205979228486619
 21
-42.826999999999998
 31
0.0
  0
LINE
  5
3D8
  8
DATA
  6
CONTINUOUS
 62
     7
 10
16.205979228486619
 20
-42.826999999999998
 30
0.0
 11
16.287499999999959
 21
-37.876999999999988
 31
0.0
  0
LINE
  5
3D9
  8
DATA
  6
CONTINUOUS
 62
     7
 10
16.287499999999959
 20
-37.876999999999988
 30
0.0
 11
16.287499999999959
 21
-27.20000000000001
 31
0.0
  0
LINE
  5
3DA
  8
DATA
  6
CONTINUOUS
 62
     7
 10
22.970000000000041
 20
37.90300000000002
 30
0.0
 11
22.970000000000041
 21
-27.20000000000001
 31
0.0
  0
LINE
  5
3DB
  8
DATA
  6
CONTINUOUS
 62
     7
 10
17.029999999999969
 20
37.90300000000002
 30
0.0
 11
17.029999999999969
 21
-27.20000000000001
 31
0.0
  0
LINE
  5
3DC
  8
DATA
  6
CONTINUOUS
 62
     7
 10
20.990000000000009
 20
-95.0
 30
0.0
 11
20.990000000000009
 21
-81.139999999999986
 31
0.0
  0
LINE
  5
3DD
  8
DATA
  6
CONTINUOUS
 62
     7
 10
20.990000000000009
 20
-95.0
 30
0.0
 11
20.990000000000009
 21
-81.139999999999986
 31
0.0
  0
LINE
  5
3DE
  8
DATA
  6
CONTINUOUS
 62
     7
 10
19.009999999999991
 20
-95.0
 30
0.0
 11
19.009999999999991
 21
-81.139999999999986
 31
0.0
  0
LINE
  5
3DF
  8
DATA
  6
CONTINUOUS
 62
     7
 10
22.970000000000041
 20
-25.75200000000001
 30
0.0
 11
17.029999999999969
 21
-26.426999999999989
 31
0.0
  0
LINE
  5
3E0
  8
DATA
  6
CONTINUOUS
 62
     7
 10
22.970000000000041
 20
-25.257000000000001
 30
0.0
 11
17.029999999999969
 21
-25.931999999999992
 31
0.0
  0
LINE
  5
3E1
  8
DATA
  6
CONTINUOUS
 62
     7
 10
22.970000000000041
 20
-25.257000000000001
 30
0.0
 11
17.029999999999969
 21
-25.931999999999992
 31
0.0
  0
LINE
  5
3E2
  8
DATA
  6
CONTINUOUS
 62
     7
 10
22.970000000000041
 20
-23.772000000000009
 30
0.0
 11
17.029999999999969
 21
-24.446999999999989
 31
0.0
  0
LINE
  5
3E3
  8
DATA
  6
CONTINUOUS
 62
     7
 10
22.970000000000041
 20
-23.277000000000001
 30
0.0
 11
17.029999999999969
 21
-23.952000000000002
 31
0.0
  0
LINE
  5
3E4
  8
DATA
  6
CONTINUOUS
 62
     7
 10
22.970000000000041
 20
-23.277000000000001
 30
0.0
 11
17.029999999999969
 21
-23.952000000000002
 31
0.0
  0
LINE
  5
3E5
  8
DATA
  6
CONTINUOUS
 62
     7
 10
22.970000000000041
 20
-21.792000000000002
 30
0.0
 11
17.029999999999969
 21
-22.466999999999999
 31
0.0
  0
LINE
  5
3E6
  8
DATA
  6
CONTINUOUS
 62
     7
 10
22.970000000000041
 20
-21.297000000000011
 30
0.0
 11
17.029999999999969
 21
-21.972000000000001
 31
0.0
  0
LINE
  5
3E7
  8
DATA
  6
CONTINUOUS
 62
     7
 10
22.970000000000041
 20
-21.297000000000011
 30
0.0
 11
17.029999999999969
 21
-21.972000000000001
 31
0.0
  0
LINE
  5
3E8
  8
DATA
  6
CONTINUOUS
 62
     7
 10
22.970000000000041
 20
-19.812000000000008
 30
0.0
 11
17.029999999999969
 21
-20.486999999999998
 31
0.0
  0
LINE
  5
3E9
  8
DATA
  6
CONTINUOUS
 62
     7
 10
22.970000000000041
 20
-19.317000000000011
 30
0.0
 11
17.029999999999969
 21
-19.99199999999999
 31
0.0
  0
LINE
  5
3EA
  8
DATA
  6
CONTINUOUS
 62
     7
 10
22.970000000000041
 20
-19.317000000000011
 30
0.0
 11
17.029999999999969
 21
-19.99199999999999
 31
0.0
  0
LINE
  5
3EB
  8
DATA
  6
CONTINUOUS
 62
     7
 10
22.970000000000041
 20
-17.832000000000001
 30
0.0
 11
17.029999999999969
 21
-18.506999999999991
 31
0.0
  0
LINE
  5
3EC
  8
DATA
  6
CONTINUOUS
 62
     7
 10
22.970000000000041
 20
-17.337
 30
0.0
 11
17.029999999999969
 21
-18.011999999999979
 31
0.0
  0
LINE
  5
3ED
  8
DATA
  6
CONTINUOUS
 62
     7
 10
22.970000000000041
 20
-17.337
 30
0.0
 11
17.029999999999969
 21
-18.011999999999979
 31
0.0
  0
LINE
  5
3EE
  8
DATA
  6
CONTINUOUS
 62
     7
 10
22.970000000000041
 20
-15.852
 30
0.0
 11
17.029999999999969
 21
-16.52699999999998
 31
0.0
  0
LINE
  5
3EF
  8
DATA
  6
CONTINUOUS
 62
     7
 10
22.970000000000041
 20
-15.356999999999999
 30
0.0
 11
17.029999999999969
 21
-16.032
 31
0.0
  0
LINE
  5
3F0
  8
DATA
  6
CONTINUOUS
 62
     7
 10
22.970000000000041
 20
-15.356999999999999
 30
0.0
 11
17.029999999999969
 21
-16.032
 31
0.0
  0
LINE
  5
3F1
  8
DATA
  6
CONTINUOUS
 62
     7
 10
22.970000000000041
 20
-13.872
 30
0.0
 11
17.029999999999969
 21
-14.54699999999999
 31
0.0
  0
LINE
  5
3F2
  8
DATA
  6
CONTINUOUS
 62
     7
 10
22.970000000000041
 20
-13.37700000000001
 30
0.0
 11
17.029999999999969
 21
-14.051999999999991
 31
0.0
  0
LINE
  5
3F3
  8
DATA
  6
CONTINUOUS
 62
     7
 10
22.970000000000041
 20
-13.37700000000001
 30
0.0
 11
17.029999999999969
 21
-14.051999999999991
 31
0.0
  0
LINE
  5
3F4
  8
DATA
  6
CONTINUOUS
 62
     7
 10
22.970000000000041
 20
-11.89200000000001
 30
0.0
 11
17.029999999999969
 21
-12.56699999999999
 31
0.0
  0
LINE
  5
3F5
  8
DATA
  6
CONTINUOUS
 62
     7
 10
22.970000000000041
 20
-11.397
 30
0.0
 11
17.029999999999969
 21
-12.07199999999999
 31
0.0
  0
LINE
  5
3F6
  8
DATA
  6
CONTINUOUS
 62
     7
 10
22.970000000000041
 20
-11.397
 30
0.0
 11
17.029999999999969
 21
-12.07199999999999
 31
0.0
  0
LINE
  5
3F7
  8
DATA
  6
CONTINUOUS
 62
     7
 10
22.970000000000041
 20
-9.9120000000000061
 30
0.0
 11
17.029999999999969
 21
-10.586999999999991
 31
0.0
  0
LINE
  5
3F8
  8
DATA
  6
CONTINUOUS
 62
     7
 10
22.970000000000041
 20
-9.4169999999999998
 30
0.0
 11
17.029999999999969
 21
-10.091999999999979
 31
0.0
  0
LINE
  5
3F9
  8
DATA
  6
CONTINUOUS
 62
     7
 10
22.970000000000041
 20
-9.4169999999999998
 30
0.0
 11
17.029999999999969
 21
-10.091999999999979
 31
0.0
  0
LINE
  5
3FA
  8
DATA
  6
CONTINUOUS
 62
     7
 10
22.970000000000041
 20
-7.9320000000000013
 30
0.0
 11
17.029999999999969
 21
-8.6069999999999851
 31
0.0
  0
LINE
  5
3FB
  8
DATA
  6
CONTINUOUS
 62
     7
 10
22.970000000000041
 20
-7.4369999999999958
 30
0.0
 11
17.029999999999969
 21
-8.1119999999999877
 31
0.0
  0
LINE
  5
3FC
  8
DATA
  6
CONTINUOUS
 62
     7
 10
22.970000000000041
 20
-7.4369999999999958
 30
0.0
 11
17.029999999999969
 21
-8.1119999999999877
 31
0.0
  0
LINE
  5
3FD
  8
DATA
  6
CONTINUOUS
 62
     7
 10
22.970000000000041
 20
-5.9519999999999982
 30
0.0
 11
17.029999999999969
 21
-6.6269999999999882
 31
0.0
  0
LINE
  5
3FE
  8
DATA
  6
CONTINUOUS
 62
     7
 10
22.970000000000041
 20
-5.4569999999999999
 30
0.0
 11
17.029999999999969
 21
-6.1319999999999828
 31
0.0
  0
LINE
  5
3FF
  8
DATA
  6
CONTINUOUS
 62
     7
 10
22.970000000000041
 20
-5.4569999999999999
 30
0.0
 11
17.029999999999969
 21
-6.1319999999999828
 31
0.0
  0
LINE
  5
400
  8
DATA
  6
CONTINUOUS
 62
     7
 10
22.970000000000041
 20
-3.972
 30
0.0
 11
17.029999999999969
 21
-4.6469999999999843
 31
0.0
  0
LINE
  5
401
  8
DATA
  6
CONTINUOUS
 62
     7
 10
22.970000000000041
 20
-3.4769999999999959
 30
0.0
 11
17.029999999999969
 21
-4.1519999999999859
 31
0.0
  0
LINE
  5
402
  8
DATA
  6
CONTINUOUS
 62
     7
 10
22.970000000000041
 20
-3.4769999999999959
 30
0.0
 11
17.029999999999969
 21
-4.1519999999999859
 31
0.0
  0
LINE
  5
403
  8
DATA
  6
CONTINUOUS
 62
     7
 10
22.970000000000041
 20
-1.9919999999999971
 30
0.0
 11
17.029999999999969
 21
-2.6669999999999869
 31
0.0
  0
LINE
  5
404
  8
DATA
  6
CONTINUOUS
 62
     7
 10
22.970000000000041
 20
-1.4970000000000001
 30
0.0
 11
17.029999999999969
 21
-2.1719999999999891
 31
0.0
  0
LINE
  5
405
  8
DATA
  6
CONTINUOUS
 62
     7
 10
22.970000000000041
 20
-1.4970000000000001
 30
0.0
 11
17.029999999999969
 21
-2.1719999999999891
 31
0.0
  0
LINE
  5
406
  8
DATA
  6
CONTINUOUS
 62
     7
 10
22.970000000000041
 20
-0.0120000000000005
 30
0.0
 11
17.029999999999969
 21
-0.6869999999999905
 31
0.0
  0
LINE
  5
407
  8
DATA
  6
CONTINUOUS
 62
     7
 10
22.970000000000041
 20
0.4829999999999971
 30
0.0
 11
17.029999999999969
 21
-0.1919999999999931
 31
0.0
  0
LINE
  5
408
  8
DATA
  6
CONTINUOUS
 62
     7
 10
22.970000000000041
 20
0.4829999999999971
 30
0.0
 11
17.029999999999969
 21
-0.1919999999999931
 31
0.0
  0
LINE
  5
409
  8
DATA
  6
CONTINUOUS
 62
     7
 10
22.970000000000041
 20
1.9679999999999891
 30
0.0
 11
17.029999999999969
 21
1.2930000000000059
 31
0.0
  0
LINE
  5
40A
  8
DATA
  6
CONTINUOUS
 62
     7
 10
22.970000000000041
 20
2.462999999999993
 30
0.0
 11
17.029999999999969
 21
1.787999999999996
 31
0.0
  0
LINE
  5
40B
  8
DATA
  6
CONTINUOUS
 62
     7
 10
22.970000000000041
 20
2.462999999999993
 30
0.0
 11
17.029999999999969
 21
1.787999999999996
 31
0.0
  0
LINE
  5
40C
  8
DATA
  6
CONTINUOUS
 62
     7
 10
22.970000000000041
 20
3.947999999999992
 30
0.0
 11
17.029999999999969
 21
3.2730000000000099
 31
0.0
  0
LINE
  5
40D
  8
DATA
  6
CONTINUOUS
 62
     7
 10
22.970000000000041
 20
4.442999999999997
 30
0.0
 11
17.029999999999969
 21
3.7679999999999998
 31
0.0
  0
LINE
  5
40E
  8
DATA
  6
CONTINUOUS
 62
     7
 10
22.970000000000041
 20
4.442999999999997
 30
0.0
 11
17.029999999999969
 21
3.7679999999999998
 31
0.0
  0
LINE
  5
40F
  8
DATA
  6
CONTINUOUS
 62
     7
 10
22.970000000000041
 20
5.9279999999999964
 30
0.0
 11
17.029999999999969
 21
5.2530000000000001
 31
0.0
  0
LINE
  5
410
  8
DATA
  6
CONTINUOUS
 62
     7
 10
22.970000000000041
 20
6.4229999999999867
 30
0.0
 11
17.029999999999969
 21
5.7480000000000038
 31
0.0
  0
LINE
  5
411
  8
DATA
  6
CONTINUOUS
 62
     7
 10
22.970000000000041
 20
6.4229999999999867
 30
0.0
 11
17.029999999999969
 21
5.7480000000000038
 31
0.0
  0
LINE
  5
412
  8
DATA
  6
CONTINUOUS
 62
     7
 10
22.970000000000041
 20
7.9080000000000013
 30
0.0
 11
17.029999999999969
 21
7.2330000000000032
 31
0.0
  0
LINE
  5
413
  8
DATA
  6
CONTINUOUS
 62
     7
 10
22.970000000000041
 20
8.4029999999999898
 30
0.0
 11
17.029999999999969
 21
7.7279999999999927
 31
0.0
  0
LINE
  5
414
  8
DATA
  6
CONTINUOUS
 62
     7
 10
22.970000000000041
 20
8.4029999999999898
 30
0.0
 11
17.029999999999969
 21
7.7279999999999927
 31
0.0
  0
LINE
  5
415
  8
DATA
  6
CONTINUOUS
 62
     7
 10
22.970000000000041
 20
9.887999999999991
 30
0.0
 11
17.029999999999969
 21
9.2130000000000081
 31
0.0
  0
LINE
  5
416
  8
DATA
  6
CONTINUOUS
 62
     7
 10
22.970000000000041
 20
10.38299999999999
 30
0.0
 11
17.029999999999969
 21
9.7079999999999984
 31
0.0
  0
LINE
  5
417
  8
DATA
  6
CONTINUOUS
 62
     7
 10
22.970000000000041
 20
10.38299999999999
 30
0.0
 11
17.029999999999969
 21
9.7079999999999984
 31
0.0
  0
LINE
  5
418
  8
DATA
  6
CONTINUOUS
 62
     7
 10
22.970000000000041
 20
11.868
 30
0.0
 11
17.029999999999969
 21
11.193
 31
0.0
  0
LINE
  5
419
  8
DATA
  6
CONTINUOUS
 62
     7
 10
22.970000000000041
 20
12.362999999999991
 30
0.0
 11
17.029999999999969
 21
11.688000000000001
 31
0.0
  0
LINE
  5
41A
  8
DATA
  6
CONTINUOUS
 62
     7
 10
22.970000000000041
 20
12.362999999999991
 30
0.0
 11
17.029999999999969
 21
11.688000000000001
 31
0.0
  0
LINE
  5
41B
  8
DATA
  6
CONTINUOUS
 62
     7
 10
22.970000000000041
 20
13.848000000000001
 30
0.0
 11
17.029999999999969
 21
13.173
 31
0.0
  0
LINE
  5
41C
  8
DATA
  6
CONTINUOUS
 62
     7
 10
22.970000000000041
 20
14.342999999999989
 30
0.0
 11
17.029999999999969
 21
13.66800000000001
 31
0.0
  0
LINE
  5
41D
  8
DATA
  6
CONTINUOUS
 62
     7
 10
22.970000000000041
 20
14.342999999999989
 30
0.0
 11
17.029999999999969
 21
13.66800000000001
 31
0.0
  0
LINE
  5
41E
  8
DATA
  6
CONTINUOUS
 62
     7
 10
22.970000000000041
 20
15.827999999999991
 30
0.0
 11
17.029999999999969
 21
15.153
 31
0.0
  0
LINE
  5
41F
  8
DATA
  6
CONTINUOUS
 62
     7
 10
22.970000000000041
 20
16.323
 30
0.0
 11
17.029999999999969
 21
15.64800000000001
 31
0.0
  0
LINE
  5
420
  8
DATA
  6
CONTINUOUS
 62
     7
 10
22.970000000000041
 20
-21.297000000000011
 30
0.0
 11
17.029999999999969
 21
-21.972000000000001
 31
0.0
  0
LINE
  5
421
  8
DATA
  6
CONTINUOUS
 62
     7
 10
22.970000000000041
 20
-19.812000000000008
 30
0.0
 11
17.029999999999969
 21
-20.486999999999998
 31
0.0
  0
LINE
  5
422
  8
DATA
  6
CONTINUOUS
 62
     7
 10
22.970000000000041
 20
-19.317000000000011
 30
0.0
 11
17.029999999999969
 21
-19.99199999999999
 31
0.0
  0
LINE
  5
423
  8
DATA
  6
CONTINUOUS
 62
     7
 10
22.970000000000041
 20
-19.317000000000011
 30
0.0
 11
17.029999999999969
 21
-19.99199999999999
 31
0.0
  0
LINE
  5
424
  8
DATA
  6
CONTINUOUS
 62
     7
 10
22.970000000000041
 20
-17.832000000000001
 30
0.0
 11
17.029999999999969
 21
-18.506999999999991
 31
0.0
  0
LINE
  5
425
  8
DATA
  6
CONTINUOUS
 62
     7
 10
22.970000000000041
 20
-17.337
 30
0.0
 11
17.029999999999969
 21
-18.011999999999979
 31
0.0
  0
LINE
  5
426
  8
DATA
  6
CONTINUOUS
 62
     7
 10
22.970000000000041
 20
-17.337
 30
0.0
 11
17.029999999999969
 21
-18.011999999999979
 31
0.0
  0
LINE
  5
427
  8
DATA
  6
CONTINUOUS
 62
     7
 10
22.970000000000041
 20
-15.852
 30
0.0
 11
17.029999999999969
 21
-16.52699999999998
 31
0.0
  0
LINE
  5
428
  8
DATA
  6
CONTINUOUS
 62
     7
 10
22.970000000000041
 20
-15.356999999999999
 30
0.0
 11
17.029999999999969
 21
-16.032
 31
0.0
  0
LINE
  5
429
  8
DATA
  6
CONTINUOUS
 62
     7
 10
22.970000000000041
 20
-15.356999999999999
 30
0.0
 11
17.029999999999969
 21
-16.032
 31
0.0
  0
LINE
  5
42A
  8
DATA
  6
CONTINUOUS
 62
     7
 10
22.970000000000041
 20
-13.872
 30
0.0
 11
17.029999999999969
 21
-14.54699999999999
 31
0.0
  0
LINE
  5
42B
  8
DATA
  6
CONTINUOUS
 62
     7
 10
22.970000000000041
 20
-13.37700000000001
 30
0.0
 11
17.029999999999969
 21
-14.051999999999991
 31
0.0
  0
LINE
  5
42C
  8
DATA
  6
CONTINUOUS
 62
     7
 10
22.970000000000041
 20
-13.37700000000001
 30
0.0
 11
17.029999999999969
 21
-14.051999999999991
 31
0.0
  0
LINE
  5
42D
  8
DATA
  6
CONTINUOUS
 62
     7
 10
22.970000000000041
 20
-11.89200000000001
 30
0.0
 11
17.029999999999969
 21
-12.56699999999999
 31
0.0
  0
LINE
  5
42E
  8
DATA
  6
CONTINUOUS
 62
     7
 10
22.970000000000041
 20
-11.397
 30
0.0
 11
17.029999999999969
 21
-12.07199999999999
 31
0.0
  0
LINE
  5
42F
  8
DATA
  6
CONTINUOUS
 62
     7
 10
22.970000000000041
 20
-11.397
 30
0.0
 11
17.029999999999969
 21
-12.07199999999999
 31
0.0
  0
LINE
  5
430
  8
DATA
  6
CONTINUOUS
 62
     7
 10
22.970000000000041
 20
-9.9120000000000061
 30
0.0
 11
17.029999999999969
 21
-10.586999999999991
 31
0.0
  0
LINE
  5
431
  8
DATA
  6
CONTINUOUS
 62
     7
 10
22.970000000000041
 20
-9.4169999999999998
 30
0.0
 11
17.029999999999969
 21
-10.091999999999979
 31
0.0
  0
LINE
  5
432
  8
DATA
  6
CONTINUOUS
 62
     7
 10
22.970000000000041
 20
-9.4169999999999998
 30
0.0
 11
17.029999999999969
 21
-10.091999999999979
 31
0.0
  0
LINE
  5
433
  8
DATA
  6
CONTINUOUS
 62
     7
 10
22.970000000000041
 20
-7.9320000000000013
 30
0.0
 11
17.029999999999969
 21
-8.6069999999999851
 31
0.0
  0
LINE
  5
434
  8
DATA
  6
CONTINUOUS
 62
     7
 10
22.970000000000041
 20
-7.4369999999999958
 30
0.0
 11
17.029999999999969
 21
-8.1119999999999877
 31
0.0
  0
LINE
  5
435
  8
DATA
  6
CONTINUOUS
 62
     7
 10
22.970000000000041
 20
-7.4369999999999958
 30
0.0
 11
17.029999999999969
 21
-8.1119999999999877
 31
0.0
  0
LINE
  5
436
  8
DATA
  6
CONTINUOUS
 62
     7
 10
22.970000000000041
 20
-5.9519999999999982
 30
0.0
 11
17.029999999999969
 21
-6.6269999999999882
 31
0.0
  0
LINE
  5
437
  8
DATA
  6
CONTINUOUS
 62
     7
 10
22.970000000000041
 20
-5.4569999999999999
 30
0.0
 11
17.029999999999969
 21
-6.1319999999999828
 31
0.0
  0
LINE
  5
438
  8
DATA
  6
CONTINUOUS
 62
     7
 10
22.970000000000041
 20
-5.4569999999999999
 30
0.0
 11
17.029999999999969
 21
-6.1319999999999828
 31
0.0
  0
LINE
  5
439
  8
DATA
  6
CONTINUOUS
 62
     7
 10
22.970000000000041
 20
-3.972
 30
0.0
 11
17.029999999999969
 21
-4.6469999999999843
 31
0.0
  0
LINE
  5
43A
  8
DATA
  6
CONTINUOUS
 62
     7
 10
22.970000000000041
 20
-3.4769999999999959
 30
0.0
 11
17.029999999999969
 21
-4.1519999999999859
 31
0.0
  0
LINE
  5
43B
  8
DATA
  6
CONTINUOUS
 62
     7
 10
22.970000000000041
 20
-3.4769999999999959
 30
0.0
 11
17.029999999999969
 21
-4.1519999999999859
 31
0.0
  0
LINE
  5
43C
  8
DATA
  6
CONTINUOUS
 62
     7
 10
22.970000000000041
 20
-1.9919999999999971
 30
0.0
 11
17.029999999999969
 21
-2.6669999999999869
 31
0.0
  0
LINE
  5
43D
  8
DATA
  6
CONTINUOUS
 62
     7
 10
22.970000000000041
 20
-1.4970000000000001
 30
0.0
 11
17.029999999999969
 21
-2.1719999999999891
 31
0.0
  0
LINE
  5
43E
  8
DATA
  6
CONTINUOUS
 62
     7
 10
22.970000000000041
 20
-1.4970000000000001
 30
0.0
 11
17.029999999999969
 21
-2.1719999999999891
 31
0.0
  0
LINE
  5
43F
  8
DATA
  6
CONTINUOUS
 62
     7
 10
22.970000000000041
 20
-0.0120000000000005
 30
0.0
 11
17.029999999999969
 21
-0.6869999999999905
 31
0.0
  0
LINE
  5
440
  8
DATA
  6
CONTINUOUS
 62
     7
 10
22.970000000000041
 20
0.4829999999999971
 30
0.0
 11
17.029999999999969
 21
-0.1919999999999931
 31
0.0
  0
LINE
  5
441
  8
DATA
  6
CONTINUOUS
 62
     7
 10
22.970000000000041
 20
0.4829999999999971
 30
0.0
 11
17.029999999999969
 21
-0.1919999999999931
 31
0.0
  0
LINE
  5
442
  8
DATA
  6
CONTINUOUS
 62
     7
 10
22.970000000000041
 20
1.9679999999999891
 30
0.0
 11
17.029999999999969
 21
1.2930000000000059
 31
0.0
  0
LINE
  5
443
  8
DATA
  6
CONTINUOUS
 62
     7
 10
22.970000000000041
 20
2.462999999999993
 30
0.0
 11
17.029999999999969
 21
1.787999999999996
 31
0.0
  0
LINE
  5
444
  8
DATA
  6
CONTINUOUS
 62
     7
 10
22.970000000000041
 20
2.462999999999993
 30
0.0
 11
17.029999999999969
 21
1.787999999999996
 31
0.0
  0
LINE
  5
445
  8
DATA
  6
CONTINUOUS
 62
     7
 10
22.970000000000041
 20
3.947999999999992
 30
0.0
 11
17.029999999999969
 21
3.2730000000000099
 31
0.0
  0
LINE
  5
446
  8
DATA
  6
CONTINUOUS
 62
     7
 10
22.970000000000041
 20
4.442999999999997
 30
0.0
 11
17.029999999999969
 21
3.7679999999999998
 31
0.0
  0
LINE
  5
447
  8
DATA
  6
CONTINUOUS
 62
     7
 10
22.970000000000041
 20
4.442999999999997
 30
0.0
 11
17.029999999999969
 21
3.7679999999999998
 31
0.0
  0
LINE
  5
448
  8
DATA
  6
CONTINUOUS
 62
     7
 10
22.970000000000041
 20
5.9279999999999964
 30
0.0
 11
17.029999999999969
 21
5.2530000000000001
 31
0.0
  0
LINE
  5
449
  8
DATA
  6
CONTINUOUS
 62
     7
 10
22.970000000000041
 20
6.4229999999999867
 30
0.0
 11
17.029999999999969
 21
5.7480000000000038
 31
0.0
  0
LINE
  5
44A
  8
DATA
  6
CONTINUOUS
 62
     7
 10
22.970000000000041
 20
6.4229999999999867
 30
0.0
 11
17.029999999999969
 21
5.7480000000000038
 31
0.0
  0
LINE
  5
44B
  8
DATA
  6
CONTINUOUS
 62
     7
 10
22.970000000000041
 20
7.9080000000000013
 30
0.0
 11
17.029999999999969
 21
7.2330000000000032
 31
0.0
  0
LINE
  5
44C
  8
DATA
  6
CONTINUOUS
 62
     7
 10
22.970000000000041
 20
8.4029999999999898
 30
0.0
 11
17.029999999999969
 21
7.7279999999999927
 31
0.0
  0
LINE
  5
44D
  8
DATA
  6
CONTINUOUS
 62
     7
 10
22.970000000000041
 20
8.4029999999999898
 30
0.0
 11
17.029999999999969
 21
7.7279999999999927
 31
0.0
  0
LINE
  5
44E
  8
DATA
  6
CONTINUOUS
 62
     7
 10
22.970000000000041
 20
9.887999999999991
 30
0.0
 11
17.029999999999969
 21
9.2130000000000081
 31
0.0
  0
LINE
  5
44F
  8
DATA
  6
CONTINUOUS
 62
     7
 10
22.970000000000041
 20
10.38299999999999
 30
0.0
 11
17.029999999999969
 21
9.7079999999999984
 31
0.0
  0
LINE
  5
450
  8
DATA
  6
CONTINUOUS
 62
     7
 10
22.970000000000041
 20
10.38299999999999
 30
0.0
 11
17.029999999999969
 21
9.7079999999999984
 31
0.0
  0
LINE
  5
451
  8
DATA
  6
CONTINUOUS
 62
     7
 10
22.970000000000041
 20
11.868
 30
0.0
 11
17.029999999999969
 21
11.193
 31
0.0
  0
LINE
  5
452
  8
DATA
  6
CONTINUOUS
 62
     7
 10
22.970000000000041
 20
12.362999999999991
 30
0.0
 11
17.029999999999969
 21
11.688000000000001
 31
0.0
  0
LINE
  5
453
  8
DATA
  6
CONTINUOUS
 62
     7
 10
22.970000000000041
 20
12.362999999999991
 30
0.0
 11
17.029999999999969
 21
11.688000000000001
 31
0.0
  0
LINE
  5
454
  8
DATA
  6
CONTINUOUS
 62
     7
 10
22.970000000000041
 20
13.848000000000001
 30
0.0
 11
17.029999999999969
 21
13.173
 31
0.0
  0
LINE
  5
455
  8
DATA
  6
CONTINUOUS
 62
     7
 10
22.970000000000041
 20
14.342999999999989
 30
0.0
 11
17.029999999999969
 21
13.66800000000001
 31
0.0
  0
LINE
  5
456
  8
DATA
  6
CONTINUOUS
 62
     7
 10
22.970000000000041
 20
14.342999999999989
 30
0.0
 11
17.029999999999969
 21
13.66800000000001
 31
0.0
  0
LINE
  5
457
  8
DATA
  6
CONTINUOUS
 62
     7
 10
22.970000000000041
 20
15.827999999999991
 30
0.0
 11
17.029999999999969
 21
15.153
 31
0.0
  0
LINE
  5
458
  8
DATA
  6
CONTINUOUS
 62
     7
 10
22.970000000000041
 20
16.323
 30
0.0
 11
17.029999999999969
 21
15.64800000000001
 31
0.0
  0
LINE
  5
459
  8
DATA
  6
CONTINUOUS
 62
     7
 10
22.970000000000041
 20
16.323
 30
0.0
 11
17.029999999999969
 21
15.64800000000001
 31
0.0
  0
LINE
  5
45A
  8
DATA
  6
CONTINUOUS
 62
     7
 10
22.970000000000041
 20
17.807999999999989
 30
0.0
 11
17.029999999999969
 21
17.132999999999999
 31
0.0
  0
LINE
  5
45B
  8
DATA
  6
CONTINUOUS
 62
     7
 10
22.970000000000041
 20
18.30299999999999
 30
0.0
 11
17.029999999999969
 21
17.628
 31
0.0
  0
LINE
  5
45C
  8
DATA
  6
CONTINUOUS
 62
     7
 10
22.970000000000041
 20
-19.317000000000011
 30
0.0
 11
17.029999999999969
 21
-19.99199999999999
 31
0.0
  0
LINE
  5
45D
  8
DATA
  6
CONTINUOUS
 62
     7
 10
22.970000000000041
 20
-17.832000000000001
 30
0.0
 11
17.029999999999969
 21
-18.506999999999991
 31
0.0
  0
LINE
  5
45E
  8
DATA
  6
CONTINUOUS
 62
     7
 10
22.970000000000041
 20
-17.337
 30
0.0
 11
17.029999999999969
 21
-18.011999999999979
 31
0.0
  0
LINE
  5
45F
  8
DATA
  6
CONTINUOUS
 62
     7
 10
22.970000000000041
 20
-17.337
 30
0.0
 11
17.029999999999969
 21
-18.011999999999979
 31
0.0
  0
LINE
  5
460
  8
DATA
  6
CONTINUOUS
 62
     7
 10
22.970000000000041
 20
-15.852
 30
0.0
 11
17.029999999999969
 21
-16.52699999999998
 31
0.0
  0
LINE
  5
461
  8
DATA
  6
CONTINUOUS
 62
     7
 10
22.970000000000041
 20
-15.356999999999999
 30
0.0
 11
17.029999999999969
 21
-16.032
 31
0.0
  0
LINE
  5
462
  8
DATA
  6
CONTINUOUS
 62
     7
 10
22.970000000000041
 20
-15.356999999999999
 30
0.0
 11
17.029999999999969
 21
-16.032
 31
0.0
  0
LINE
  5
463
  8
DATA
  6
CONTINUOUS
 62
     7
 10
22.970000000000041
 20
-13.872
 30
0.0
 11
17.029999999999969
 21
-14.54699999999999
 31
0.0
  0
LINE
  5
464
  8
DATA
  6
CONTINUOUS
 62
     7
 10
22.970000000000041
 20
-13.37700000000001
 30
0.0
 11
17.029999999999969
 21
-14.051999999999991
 31
0.0
  0
LINE
  5
465
  8
DATA
  6
CONTINUOUS
 62
     7
 10
22.970000000000041
 20
-13.37700000000001
 30
0.0
 11
17.029999999999969
 21
-14.051999999999991
 31
0.0
  0
LINE
  5
466
  8
DATA
  6
CONTINUOUS
 62
     7
 10
22.970000000000041
 20
-11.89200000000001
 30
0.0
 11
17.029999999999969
 21
-12.56699999999999
 31
0.0
  0
LINE
  5
467
  8
DATA
  6
CONTINUOUS
 62
     7
 10
22.970000000000041
 20
-11.397
 30
0.0
 11
17.029999999999969
 21
-12.07199999999999
 31
0.0
  0
LINE
  5
468
  8
DATA
  6
CONTINUOUS
 62
     7
 10
22.970000000000041
 20
-11.397
 30
0.0
 11
17.029999999999969
 21
-12.07199999999999
 31
0.0
  0
LINE
  5
469
  8
DATA
  6
CONTINUOUS
 62
     7
 10
22.970000000000041
 20
-9.9120000000000061
 30
0.0
 11
17.029999999999969
 21
-10.586999999999991
 31
0.0
  0
LINE
  5
46A
  8
DATA
  6
CONTINUOUS
 62
     7
 10
22.970000000000041
 20
-9.4169999999999998
 30
0.0
 11
17.029999999999969
 21
-10.091999999999979
 31
0.0
  0
LINE
  5
46B
  8
DATA
  6
CONTINUOUS
 62
     7
 10
22.970000000000041
 20
-9.4169999999999998
 30
0.0
 11
17.029999999999969
 21
-10.091999999999979
 31
0.0
  0
LINE
  5
46C
  8
DATA
  6
CONTINUOUS
 62
     7
 10
22.970000000000041
 20
-7.9320000000000013
 30
0.0
 11
17.029999999999969
 21
-8.6069999999999851
 31
0.0
  0
LINE
  5
46D
  8
DATA
  6
CONTINUOUS
 62
     7
 10
22.970000000000041
 20
-7.4369999999999958
 30
0.0
 11
17.029999999999969
 21
-8.1119999999999877
 31
0.0
  0
LINE
  5
46E
  8
DATA
  6
CONTINUOUS
 62
     7
 10
22.970000000000041
 20
-7.4369999999999958
 30
0.0
 11
17.029999999999969
 21
-8.1119999999999877
 31
0.0
  0
LINE
  5
46F
  8
DATA
  6
CONTINUOUS
 62
     7
 10
22.970000000000041
 20
-5.9519999999999982
 30
0.0
 11
17.029999999999969
 21
-6.6269999999999882
 31
0.0
  0
LINE
  5
470
  8
DATA
  6
CONTINUOUS
 62
     7
 10
22.970000000000041
 20
-5.4569999999999999
 30
0.0
 11
17.029999999999969
 21
-6.1319999999999828
 31
0.0
  0
LINE
  5
471
  8
DATA
  6
CONTINUOUS
 62
     7
 10
22.970000000000041
 20
-5.4569999999999999
 30
0.0
 11
17.029999999999969
 21
-6.1319999999999828
 31
0.0
  0
LINE
  5
472
  8
DATA
  6
CONTINUOUS
 62
     7
 10
22.970000000000041
 20
-3.972
 30
0.0
 11
17.029999999999969
 21
-4.6469999999999843
 31
0.0
  0
LINE
  5
473
  8
DATA
  6
CONTINUOUS
 62
     7
 10
22.970000000000041
 20
-3.4769999999999959
 30
0.0
 11
17.029999999999969
 21
-4.1519999999999859
 31
0.0
  0
LINE
  5
474
  8
DATA
  6
CONTINUOUS
 62
     7
 10
22.970000000000041
 20
-3.4769999999999959
 30
0.0
 11
17.029999999999969
 21
-4.1519999999999859
 31
0.0
  0
LINE
  5
475
  8
DATA
  6
CONTINUOUS
 62
     7
 10
22.970000000000041
 20
-1.9919999999999971
 30
0.0
 11
17.029999999999969
 21
-2.6669999999999869
 31
0.0
  0
LINE
  5
476
  8
DATA
  6
CONTINUOUS
 62
     7
 10
22.970000000000041
 20
-1.4970000000000001
 30
0.0
 11
17.029999999999969
 21
-2.1719999999999891
 31
0.0
  0
LINE
  5
477
  8
DATA
  6
CONTINUOUS
 62
     7
 10
22.970000000000041
 20
-1.4970000000000001
 30
0.0
 11
17.029999999999969
 21
-2.1719999999999891
 31
0.0
  0
LINE
  5
478
  8
DATA
  6
CONTINUOUS
 62
     7
 10
22.970000000000041
 20
-0.0120000000000005
 30
0.0
 11
17.029999999999969
 21
-0.6869999999999905
 31
0.0
  0
LINE
  5
479
  8
DATA
  6
CONTINUOUS
 62
     7
 10
22.970000000000041
 20
0.4829999999999971
 30
0.0
 11
17.029999999999969
 21
-0.1919999999999931
 31
0.0
  0
LINE
  5
47A
  8
DATA
  6
CONTINUOUS
 62
     7
 10
22.970000000000041
 20
0.4829999999999971
 30
0.0
 11
17.029999999999969
 21
-0.1919999999999931
 31
0.0
  0
LINE
  5
47B
  8
DATA
  6
CONTINUOUS
 62
     7
 10
22.970000000000041
 20
1.9679999999999891
 30
0.0
 11
17.029999999999969
 21
1.2930000000000059
 31
0.0
  0
LINE
  5
47C
  8
DATA
  6
CONTINUOUS
 62
     7
 10
22.970000000000041
 20
2.462999999999993
 30
0.0
 11
17.029999999999969
 21
1.787999999999996
 31
0.0
  0
LINE
  5
47D
  8
DATA
  6
CONTINUOUS
 62
     7
 10
22.970000000000041
 20
2.462999999999993
 30
0.0
 11
17.029999999999969
 21
1.787999999999996
 31
0.0
  0
LINE
  5
47E
  8
DATA
  6
CONTINUOUS
 62
     7
 10
22.970000000000041
 20
3.947999999999992
 30
0.0
 11
17.029999999999969
 21
3.2730000000000099
 31
0.0
  0
LINE
  5
47F
  8
DATA
  6
CONTINUOUS
 62
     7
 10
22.970000000000041
 20
4.442999999999997
 30
0.0
 11
17.029999999999969
 21
3.7679999999999998
 31
0.0
  0
LINE
  5
480
  8
DATA
  6
CONTINUOUS
 62
     7
 10
22.970000000000041
 20
4.442999999999997
 30
0.0
 11
17.029999999999969
 21
3.7679999999999998
 31
0.0
  0
LINE
  5
481
  8
DATA
  6
CONTINUOUS
 62
     7
 10
22.970000000000041
 20
5.9279999999999964
 30
0.0
 11
17.029999999999969
 21
5.2530000000000001
 31
0.0
  0
LINE
  5
482
  8
DATA
  6
CONTINUOUS
 62
     7
 10
22.970000000000041
 20
6.4229999999999867
 30
0.0
 11
17.029999999999969
 21
5.7480000000000038
 31
0.0
  0
LINE
  5
483
  8
DATA
  6
CONTINUOUS
 62
     7
 10
22.970000000000041
 20
6.4229999999999867
 30
0.0
 11
17.029999999999969
 21
5.7480000000000038
 31
0.0
  0
LINE
  5
484
  8
DATA
  6
CONTINUOUS
 62
     7
 10
22.970000000000041
 20
7.9080000000000013
 30
0.0
 11
17.029999999999969
 21
7.2330000000000032
 31
0.0
  0
LINE
  5
485
  8
DATA
  6
CONTINUOUS
 62
     7
 10
22.970000000000041
 20
8.4029999999999898
 30
0.0
 11
17.029999999999969
 21
7.7279999999999927
 31
0.0
  0
LINE
  5
486
  8
DATA
  6
CONTINUOUS
 62
     7
 10
22.970000000000041
 20
8.4029999999999898
 30
0.0
 11
17.029999999999969
 21
7.7279999999999927
 31
0.0
  0
LINE
  5
487
  8
DATA
  6
CONTINUOUS
 62
     7
 10
22.970000000000041
 20
9.887999999999991
 30
0.0
 11
17.029999999999969
 21
9.2130000000000081
 31
0.0
  0
LINE
  5
488
  8
DATA
  6
CONTINUOUS
 62
     7
 10
22.970000000000041
 20
10.38299999999999
 30
0.0
 11
17.029999999999969
 21
9.7079999999999984
 31
0.0
  0
LINE
  5
489
  8
DATA
  6
CONTINUOUS
 62
     7
 10
22.970000000000041
 20
10.38299999999999
 30
0.0
 11
17.029999999999969
 21
9.7079999999999984
 31
0.0
  0
LINE
  5
48A
  8
DATA
  6
CONTINUOUS
 62
     7
 10
22.970000000000041
 20
11.868
 30
0.0
 11
17.029999999999969
 21
11.193
 31
0.0
  0
LINE
  5
48B
  8
DATA
  6
CONTINUOUS
 62
     7
 10
22.970000000000041
 20
12.362999999999991
 30
0.0
 11
17.029999999999969
 21
11.688000000000001
 31
0.0
  0
LINE
  5
48C
  8
DATA
  6
CONTINUOUS
 62
     7
 10
22.970000000000041
 20
12.362999999999991
 30
0.0
 11
17.029999999999969
 21
11.688000000000001
 31
0.0
  0
LINE
  5
48D
  8
DATA
  6
CONTINUOUS
 62
     7
 10
22.970000000000041
 20
13.848000000000001
 30
0.0
 11
17.029999999999969
 21
13.173
 31
0.0
  0
LINE
  5
48E
  8
DATA
  6
CONTINUOUS
 62
     7
 10
22.970000000000041
 20
14.342999999999989
 30
0.0
 11
17.029999999999969
 21
13.66800000000001
 31
0.0
  0
LINE
  5
48F
  8
DATA
  6
CONTINUOUS
 62
     7
 10
22.970000000000041
 20
14.342999999999989
 30
0.0
 11
17.029999999999969
 21
13.66800000000001
 31
0.0
  0
LINE
  5
490
  8
DATA
  6
CONTINUOUS
 62
     7
 10
22.970000000000041
 20
15.827999999999991
 30
0.0
 11
17.029999999999969
 21
15.153
 31
0.0
  0
LINE
  5
491
  8
DATA
  6
CONTINUOUS
 62
     7
 10
22.970000000000041
 20
16.323
 30
0.0
 11
17.029999999999969
 21
15.64800000000001
 31
0.0
  0
LINE
  5
492
  8
DATA
  6
CONTINUOUS
 62
     7
 10
22.970000000000041
 20
16.323
 30
0.0
 11
17.029999999999969
 21
15.64800000000001
 31
0.0
  0
LINE
  5
493
  8
DATA
  6
CONTINUOUS
 62
     7
 10
22.970000000000041
 20
17.807999999999989
 30
0.0
 11
17.029999999999969
 21
17.132999999999999
 31
0.0
  0
LINE
  5
494
  8
DATA
  6
CONTINUOUS
 62
     7
 10
22.970000000000041
 20
18.30299999999999
 30
0.0
 11
17.029999999999969
 21
17.628
 31
0.0
  0
LINE
  5
495
  8
DATA
  6
CONTINUOUS
 62
     7
 10
22.970000000000041
 20
18.30299999999999
 30
0.0
 11
17.029999999999969
 21
17.628
 31
0.0
  0
LINE
  5
496
  8
DATA
  6
CONTINUOUS
 62
     7
 10
22.970000000000041
 20
19.788
 30
0.0
 11
17.029999999999969
 21
19.113
 31
0.0
  0
LINE
  5
497
  8
DATA
  6
CONTINUOUS
 62
     7
 10
22.970000000000041
 20
20.283000000000008
 30
0.0
 11
17.029999999999969
 21
19.608000000000001
 31
0.0
  0
LINE
  5
498
  8
DATA
  6
CONTINUOUS
 62
     7
 10
22.970000000000041
 20
-17.337
 30
0.0
 11
17.029999999999969
 21
-18.011999999999979
 31
0.0
  0
LINE
  5
499
  8
DATA
  6
CONTINUOUS
 62
     7
 10
22.970000000000041
 20
-15.852
 30
0.0
 11
17.029999999999969
 21
-16.52699999999998
 31
0.0
  0
LINE
  5
49A
  8
DATA
  6
CONTINUOUS
 62
     7
 10
22.970000000000041
 20
-15.356999999999999
 30
0.0
 11
17.029999999999969
 21
-16.032
 31
0.0
  0
LINE
  5
49B
  8
DATA
  6
CONTINUOUS
 62
     7
 10
22.970000000000041
 20
-15.356999999999999
 30
0.0
 11
17.029999999999969
 21
-16.032
 31
0.0
  0
LINE
  5
49C
  8
DATA
  6
CONTINUOUS
 62
     7
 10
22.970000000000041
 20
-13.872
 30
0.0
 11
17.029999999999969
 21
-14.54699999999999
 31
0.0
  0
LINE
  5
49D
  8
DATA
  6
CONTINUOUS
 62
     7
 10
22.970000000000041
 20
-13.37700000000001
 30
0.0
 11
17.029999999999969
 21
-14.051999999999991
 31
0.0
  0
LINE
  5
49E
  8
DATA
  6
CONTINUOUS
 62
     7
 10
22.970000000000041
 20
-13.37700000000001
 30
0.0
 11
17.029999999999969
 21
-14.051999999999991
 31
0.0
  0
LINE
  5
49F
  8
DATA
  6
CONTINUOUS
 62
     7
 10
22.970000000000041
 20
-11.89200000000001
 30
0.0
 11
17.029999999999969
 21
-12.56699999999999
 31
0.0
  0
LINE
  5
4A0
  8
DATA
  6
CONTINUOUS
 62
     7
 10
22.970000000000041
 20
-11.397
 30
0.0
 11
17.029999999999969
 21
-12.07199999999999
 31
0.0
  0
LINE
  5
4A1
  8
DATA
  6
CONTINUOUS
 62
     7
 10
22.970000000000041
 20
-11.397
 30
0.0
 11
17.029999999999969
 21
-12.07199999999999
 31
0.0
  0
LINE
  5
4A2
  8
DATA
  6
CONTINUOUS
 62
     7
 10
22.970000000000041
 20
-9.9120000000000061
 30
0.0
 11
17.029999999999969
 21
-10.586999999999991
 31
0.0
  0
LINE
  5
4A3
  8
DATA
  6
CONTINUOUS
 62
     7
 10
22.970000000000041
 20
-9.4169999999999998
 30
0.0
 11
17.029999999999969
 21
-10.091999999999979
 31
0.0
  0
LINE
  5
4A4
  8
DATA
  6
CONTINUOUS
 62
     7
 10
22.970000000000041
 20
-9.4169999999999998
 30
0.0
 11
17.029999999999969
 21
-10.091999999999979
 31
0.0
  0
LINE
  5
4A5
  8
DATA
  6
CONTINUOUS
 62
     7
 10
22.970000000000041
 20
-7.9320000000000013
 30
0.0
 11
17.029999999999969
 21
-8.6069999999999851
 31
0.0
  0
LINE
  5
4A6
  8
DATA
  6
CONTINUOUS
 62
     7
 10
22.970000000000041
 20
-7.4369999999999958
 30
0.0
 11
17.029999999999969
 21
-8.1119999999999877
 31
0.0
  0
LINE
  5
4A7
  8
DATA
  6
CONTINUOUS
 62
     7
 10
22.970000000000041
 20
-7.4369999999999958
 30
0.0
 11
17.029999999999969
 21
-8.1119999999999877
 31
0.0
  0
LINE
  5
4A8
  8
DATA
  6
CONTINUOUS
 62
     7
 10
22.970000000000041
 20
-5.9519999999999982
 30
0.0
 11
17.029999999999969
 21
-6.6269999999999882
 31
0.0
  0
LINE
  5
4A9
  8
DATA
  6
CONTINUOUS
 62
     7
 10
22.970000000000041
 20
-5.4569999999999999
 30
0.0
 11
17.029999999999969
 21
-6.1319999999999828
 31
0.0
  0
LINE
  5
4AA
  8
DATA
  6
CONTINUOUS
 62
     7
 10
22.970000000000041
 20
-5.4569999999999999
 30
0.0
 11
17.029999999999969
 21
-6.1319999999999828
 31
0.0
  0
LINE
  5
4AB
  8
DATA
  6
CONTINUOUS
 62
     7
 10
22.970000000000041
 20
-3.972
 30
0.0
 11
17.029999999999969
 21
-4.6469999999999843
 31
0.0
  0
LINE
  5
4AC
  8
DATA
  6
CONTINUOUS
 62
     7
 10
22.970000000000041
 20
-3.4769999999999959
 30
0.0
 11
17.029999999999969
 21
-4.1519999999999859
 31
0.0
  0
LINE
  5
4AD
  8
DATA
  6
CONTINUOUS
 62
     7
 10
22.970000000000041
 20
-3.4769999999999959
 30
0.0
 11
17.029999999999969
 21
-4.1519999999999859
 31
0.0
  0
LINE
  5
4AE
  8
DATA
  6
CONTINUOUS
 62
     7
 10
22.970000000000041
 20
-1.9919999999999971
 30
0.0
 11
17.029999999999969
 21
-2.6669999999999869
 31
0.0
  0
LINE
  5
4AF
  8
DATA
  6
CONTINUOUS
 62
     7
 10
22.970000000000041
 20
-1.4970000000000001
 30
0.0
 11
17.029999999999969
 21
-2.1719999999999891
 31
0.0
  0
LINE
  5
4B0
  8
DATA
  6
CONTINUOUS
 62
     7
 10
22.970000000000041
 20
-1.4970000000000001
 30
0.0
 11
17.029999999999969
 21
-2.1719999999999891
 31
0.0
  0
LINE
  5
4B1
  8
DATA
  6
CONTINUOUS
 62
     7
 10
22.970000000000041
 20
-0.0120000000000005
 30
0.0
 11
17.029999999999969
 21
-0.6869999999999905
 31
0.0
  0
LINE
  5
4B2
  8
DATA
  6
CONTINUOUS
 62
     7
 10
22.970000000000041
 20
0.4829999999999971
 30
0.0
 11
17.029999999999969
 21
-0.1919999999999931
 31
0.0
  0
LINE
  5
4B3
  8
DATA
  6
CONTINUOUS
 62
     7
 10
22.970000000000041
 20
0.4829999999999971
 30
0.0
 11
17.029999999999969
 21
-0.1919999999999931
 31
0.0
  0
LINE
  5
4B4
  8
DATA
  6
CONTINUOUS
 62
     7
 10
22.970000000000041
 20
1.9679999999999891
 30
0.0
 11
17.029999999999969
 21
1.2930000000000059
 31
0.0
  0
LINE
  5
4B5
  8
DATA
  6
CONTINUOUS
 62
     7
 10
22.970000000000041
 20
2.462999999999993
 30
0.0
 11
17.029999999999969
 21
1.787999999999996
 31
0.0
  0
LINE
  5
4B6
  8
DATA
  6
CONTINUOUS
 62
     7
 10
22.970000000000041
 20
2.462999999999993
 30
0.0
 11
17.029999999999969
 21
1.787999999999996
 31
0.0
  0
LINE
  5
4B7
  8
DATA
  6
CONTINUOUS
 62
     7
 10
22.970000000000041
 20
3.947999999999992
 30
0.0
 11
17.029999999999969
 21
3.2730000000000099
 31
0.0
  0
LINE
  5
4B8
  8
DATA
  6
CONTINUOUS
 62
     7
 10
22.970000000000041
 20
4.442999999999997
 30
0.0
 11
17.029999999999969
 21
3.7679999999999998
 31
0.0
  0
LINE
  5
4B9
  8
DATA
  6
CONTINUOUS
 62
     7
 10
22.970000000000041
 20
4.442999999999997
 30
0.0
 11
17.029999999999969
 21
3.7679999999999998
 31
0.0
  0
LINE
  5
4BA
  8
DATA
  6
CONTINUOUS
 62
     7
 10
22.970000000000041
 20
5.9279999999999964
 30
0.0
 11
17.029999999999969
 21
5.2530000000000001
 31
0.0
  0
LINE
  5
4BB
  8
DATA
  6
CONTINUOUS
 62
     7
 10
22.970000000000041
 20
6.4229999999999867
 30
0.0
 11
17.029999999999969
 21
5.7480000000000038
 31
0.0
  0
LINE
  5
4BC
  8
DATA
  6
CONTINUOUS
 62
     7
 10
22.970000000000041
 20
6.4229999999999867
 30
0.0
 11
17.029999999999969
 21
5.7480000000000038
 31
0.0
  0
LINE
  5
4BD
  8
DATA
  6
CONTINUOUS
 62
     7
 10
22.970000000000041
 20
7.9080000000000013
 30
0.0
 11
17.029999999999969
 21
7.2330000000000032
 31
0.0
  0
LINE
  5
4BE
  8
DATA
  6
CONTINUOUS
 62
     7
 10
22.970000000000041
 20
8.4029999999999898
 30
0.0
 11
17.029999999999969
 21
7.7279999999999927
 31
0.0
  0
LINE
  5
4BF
  8
DATA
  6
CONTINUOUS
 62
     7
 10
22.970000000000041
 20
8.4029999999999898
 30
0.0
 11
17.029999999999969
 21
7.7279999999999927
 31
0.0
  0
LINE
  5
4C0
  8
DATA
  6
CONTINUOUS
 62
     7
 10
22.970000000000041
 20
9.887999999999991
 30
0.0
 11
17.029999999999969
 21
9.2130000000000081
 31
0.0
  0
LINE
  5
4C1
  8
DATA
  6
CONTINUOUS
 62
     7
 10
22.970000000000041
 20
10.38299999999999
 30
0.0
 11
17.029999999999969
 21
9.7079999999999984
 31
0.0
  0
LINE
  5
4C2
  8
DATA
  6
CONTINUOUS
 62
     7
 10
22.970000000000041
 20
10.38299999999999
 30
0.0
 11
17.029999999999969
 21
9.7079999999999984
 31
0.0
  0
LINE
  5
4C3
  8
DATA
  6
CONTINUOUS
 62
     7
 10
22.970000000000041
 20
11.868
 30
0.0
 11
17.029999999999969
 21
11.193
 31
0.0
  0
LINE
  5
4C4
  8
DATA
  6
CONTINUOUS
 62
     7
 10
22.970000000000041
 20
12.362999999999991
 30
0.0
 11
17.029999999999969
 21
11.688000000000001
 31
0.0
  0
LINE
  5
4C5
  8
DATA
  6
CONTINUOUS
 62
     7
 10
22.970000000000041
 20
12.362999999999991
 30
0.0
 11
17.029999999999969
 21
11.688000000000001
 31
0.0
  0
LINE
  5
4C6
  8
DATA
  6
CONTINUOUS
 62
     7
 10
22.970000000000041
 20
13.848000000000001
 30
0.0
 11
17.029999999999969
 21
13.173
 31
0.0
  0
LINE
  5
4C7
  8
DATA
  6
CONTINUOUS
 62
     7
 10
22.970000000000041
 20
14.342999999999989
 30
0.0
 11
17.029999999999969
 21
13.66800000000001
 31
0.0
  0
LINE
  5
4C8
  8
DATA
  6
CONTINUOUS
 62
     7
 10
22.970000000000041
 20
14.342999999999989
 30
0.0
 11
17.029999999999969
 21
13.66800000000001
 31
0.0
  0
LINE
  5
4C9
  8
DATA
  6
CONTINUOUS
 62
     7
 10
22.970000000000041
 20
15.827999999999991
 30
0.0
 11
17.029999999999969
 21
15.153
 31
0.0
  0
LINE
  5
4CA
  8
DATA
  6
CONTINUOUS
 62
     7
 10
22.970000000000041
 20
16.323
 30
0.0
 11
17.029999999999969
 21
15.64800000000001
 31
0.0
  0
LINE
  5
4CB
  8
DATA
  6
CONTINUOUS
 62
     7
 10
22.970000000000041
 20
16.323
 30
0.0
 11
17.029999999999969
 21
15.64800000000001
 31
0.0
  0
LINE
  5
4CC
  8
DATA
  6
CONTINUOUS
 62
     7
 10
22.970000000000041
 20
17.807999999999989
 30
0.0
 11
17.029999999999969
 21
17.132999999999999
 31
0.0
  0
LINE
  5
4CD
  8
DATA
  6
CONTINUOUS
 62
     7
 10
22.970000000000041
 20
18.30299999999999
 30
0.0
 11
17.029999999999969
 21
17.628
 31
0.0
  0
LINE
  5
4CE
  8
DATA
  6
CONTINUOUS
 62
     7
 10
22.970000000000041
 20
18.30299999999999
 30
0.0
 11
17.029999999999969
 21
17.628
 31
0.0
  0
LINE
  5
4CF
  8
DATA
  6
CONTINUOUS
 62
     7
 10
22.970000000000041
 20
19.788
 30
0.0
 11
17.029999999999969
 21
19.113
 31
0.0
  0
LINE
  5
4D0
  8
DATA
  6
CONTINUOUS
 62
     7
 10
22.970000000000041
 20
20.283000000000008
 30
0.0
 11
17.029999999999969
 21
19.608000000000001
 31
0.0
  0
LINE
  5
4D1
  8
DATA
  6
CONTINUOUS
 62
     7
 10
22.970000000000041
 20
20.283000000000008
 30
0.0
 11
17.029999999999969
 21
19.608000000000001
 31
0.0
  0
LINE
  5
4D2
  8
DATA
  6
CONTINUOUS
 62
     7
 10
22.970000000000041
 20
21.76799999999999
 30
0.0
 11
17.029999999999969
 21
21.093000000000011
 31
0.0
  0
LINE
  5
4D3
  8
DATA
  6
CONTINUOUS
 62
     7
 10
22.970000000000041
 20
22.263000000000002
 30
0.0
 11
17.029999999999969
 21
21.588000000000012
 31
0.0
  0
LINE
  5
4D4
  8
DATA
  6
CONTINUOUS
 62
     7
 10
22.970000000000041
 20
-15.356999999999999
 30
0.0
 11
17.029999999999969
 21
-16.032
 31
0.0
  0
LINE
  5
4D5
  8
DATA
  6
CONTINUOUS
 62
     7
 10
22.970000000000041
 20
-13.872
 30
0.0
 11
17.029999999999969
 21
-14.54699999999999
 31
0.0
  0
LINE
  5
4D6
  8
DATA
  6
CONTINUOUS
 62
     7
 10
22.970000000000041
 20
-13.37700000000001
 30
0.0
 11
17.029999999999969
 21
-14.051999999999991
 31
0.0
  0
LINE
  5
4D7
  8
DATA
  6
CONTINUOUS
 62
     7
 10
22.970000000000041
 20
-13.37700000000001
 30
0.0
 11
17.029999999999969
 21
-14.051999999999991
 31
0.0
  0
LINE
  5
4D8
  8
DATA
  6
CONTINUOUS
 62
     7
 10
22.970000000000041
 20
-11.89200000000001
 30
0.0
 11
17.029999999999969
 21
-12.56699999999999
 31
0.0
  0
LINE
  5
4D9
  8
DATA
  6
CONTINUOUS
 62
     7
 10
22.970000000000041
 20
-11.397
 30
0.0
 11
17.029999999999969
 21
-12.07199999999999
 31
0.0
  0
LINE
  5
4DA
  8
DATA
  6
CONTINUOUS
 62
     7
 10
22.970000000000041
 20
-11.397
 30
0.0
 11
17.029999999999969
 21
-12.07199999999999
 31
0.0
  0
LINE
  5
4DB
  8
DATA
  6
CONTINUOUS
 62
     7
 10
22.970000000000041
 20
-9.9120000000000061
 30
0.0
 11
17.029999999999969
 21
-10.586999999999991
 31
0.0
  0
LINE
  5
4DC
  8
DATA
  6
CONTINUOUS
 62
     7
 10
22.970000000000041
 20
-9.4169999999999998
 30
0.0
 11
17.029999999999969
 21
-10.091999999999979
 31
0.0
  0
LINE
  5
4DD
  8
DATA
  6
CONTINUOUS
 62
     7
 10
22.970000000000041
 20
-9.4169999999999998
 30
0.0
 11
17.029999999999969
 21
-10.091999999999979
 31
0.0
  0
LINE
  5
4DE
  8
DATA
  6
CONTINUOUS
 62
     7
 10
22.970000000000041
 20
-7.9320000000000013
 30
0.0
 11
17.029999999999969
 21
-8.6069999999999851
 31
0.0
  0
LINE
  5
4DF
  8
DATA
  6
CONTINUOUS
 62
     7
 10
22.970000000000041
 20
-7.4369999999999958
 30
0.0
 11
17.029999999999969
 21
-8.1119999999999877
 31
0.0
  0
LINE
  5
4E0
  8
DATA
  6
CONTINUOUS
 62
     7
 10
22.970000000000041
 20
-7.4369999999999958
 30
0.0
 11
17.029999999999969
 21
-8.1119999999999877
 31
0.0
  0
LINE
  5
4E1
  8
DATA
  6
CONTINUOUS
 62
     7
 10
22.970000000000041
 20
-5.9519999999999982
 30
0.0
 11
17.029999999999969
 21
-6.6269999999999882
 31
0.0
  0
LINE
  5
4E2
  8
DATA
  6
CONTINUOUS
 62
     7
 10
22.970000000000041
 20
-5.4569999999999999
 30
0.0
 11
17.029999999999969
 21
-6.1319999999999828
 31
0.0
  0
LINE
  5
4E3
  8
DATA
  6
CONTINUOUS
 62
     7
 10
22.970000000000041
 20
-5.4569999999999999
 30
0.0
 11
17.029999999999969
 21
-6.1319999999999828
 31
0.0
  0
LINE
  5
4E4
  8
DATA
  6
CONTINUOUS
 62
     7
 10
22.970000000000041
 20
-3.972
 30
0.0
 11
17.029999999999969
 21
-4.6469999999999843
 31
0.0
  0
LINE
  5
4E5
  8
DATA
  6
CONTINUOUS
 62
     7
 10
22.970000000000041
 20
-3.4769999999999959
 30
0.0
 11
17.029999999999969
 21
-4.1519999999999859
 31
0.0
  0
LINE
  5
4E6
  8
DATA
  6
CONTINUOUS
 62
     7
 10
22.970000000000041
 20
-3.4769999999999959
 30
0.0
 11
17.029999999999969
 21
-4.1519999999999859
 31
0.0
  0
LINE
  5
4E7
  8
DATA
  6
CONTINUOUS
 62
     7
 10
22.970000000000041
 20
-1.9919999999999971
 30
0.0
 11
17.029999999999969
 21
-2.6669999999999869
 31
0.0
  0
LINE
  5
4E8
  8
DATA
  6
CONTINUOUS
 62
     7
 10
22.970000000000041
 20
-1.4970000000000001
 30
0.0
 11
17.029999999999969
 21
-2.1719999999999891
 31
0.0
  0
LINE
  5
4E9
  8
DATA
  6
CONTINUOUS
 62
     7
 10
22.970000000000041
 20
-1.4970000000000001
 30
0.0
 11
17.029999999999969
 21
-2.1719999999999891
 31
0.0
  0
LINE
  5
4EA
  8
DATA
  6
CONTINUOUS
 62
     7
 10
22.970000000000041
 20
-0.0120000000000005
 30
0.0
 11
17.029999999999969
 21
-0.6869999999999905
 31
0.0
  0
LINE
  5
4EB
  8
DATA
  6
CONTINUOUS
 62
     7
 10
22.970000000000041
 20
0.4829999999999971
 30
0.0
 11
17.029999999999969
 21
-0.1919999999999931
 31
0.0
  0
LINE
  5
4EC
  8
DATA
  6
CONTINUOUS
 62
     7
 10
22.970000000000041
 20
0.4829999999999971
 30
0.0
 11
17.029999999999969
 21
-0.1919999999999931
 31
0.0
  0
LINE
  5
4ED
  8
DATA
  6
CONTINUOUS
 62
     7
 10
22.970000000000041
 20
1.9679999999999891
 30
0.0
 11
17.029999999999969
 21
1.2930000000000059
 31
0.0
  0
LINE
  5
4EE
  8
DATA
  6
CONTINUOUS
 62
     7
 10
22.970000000000041
 20
2.462999999999993
 30
0.0
 11
17.029999999999969
 21
1.787999999999996
 31
0.0
  0
LINE
  5
4EF
  8
DATA
  6
CONTINUOUS
 62
     7
 10
22.970000000000041
 20
2.462999999999993
 30
0.0
 11
17.029999999999969
 21
1.787999999999996
 31
0.0
  0
LINE
  5
4F0
  8
DATA
  6
CONTINUOUS
 62
     7
 10
22.970000000000041
 20
3.947999999999992
 30
0.0
 11
17.029999999999969
 21
3.2730000000000099
 31
0.0
  0
LINE
  5
4F1
  8
DATA
  6
CONTINUOUS
 62
     7
 10
22.970000000000041
 20
4.442999999999997
 30
0.0
 11
17.029999999999969
 21
3.7679999999999998
 31
0.0
  0
LINE
  5
4F2
  8
DATA
  6
CONTINUOUS
 62
     7
 10
22.970000000000041
 20
4.442999999999997
 30
0.0
 11
17.029999999999969
 21
3.7679999999999998
 31
0.0
  0
LINE
  5
4F3
  8
DATA
  6
CONTINUOUS
 62
     7
 10
22.970000000000041
 20
5.9279999999999964
 30
0.0
 11
17.029999999999969
 21
5.2530000000000001
 31
0.0
  0
LINE
  5
4F4
  8
DATA
  6
CONTINUOUS
 62
     7
 10
22.970000000000041
 20
6.4229999999999867
 30
0.0
 11
17.029999999999969
 21
5.7480000000000038
 31
0.0
  0
LINE
  5
4F5
  8
DATA
  6
CONTINUOUS
 62
     7
 10
22.970000000000041
 20
6.4229999999999867
 30
0.0
 11
17.029999999999969
 21
5.7480000000000038
 31
0.0
  0
LINE
  5
4F6
  8
DATA
  6
CONTINUOUS
 62
     7
 10
22.970000000000041
 20
7.9080000000000013
 30
0.0
 11
17.029999999999969
 21
7.2330000000000032
 31
0.0
  0
LINE
  5
4F7
  8
DATA
  6
CONTINUOUS
 62
     7
 10
22.970000000000041
 20
8.4029999999999898
 30
0.0
 11
17.029999999999969
 21
7.7279999999999927
 31
0.0
  0
LINE
  5
4F8
  8
DATA
  6
CONTINUOUS
 62
     7
 10
22.970000000000041
 20
8.4029999999999898
 30
0.0
 11
17.029999999999969
 21
7.7279999999999927
 31
0.0
  0
LINE
  5
4F9
  8
DATA
  6
CONTINUOUS
 62
     7
 10
22.970000000000041
 20
9.887999999999991
 30
0.0
 11
17.029999999999969
 21
9.2130000000000081
 31
0.0
  0
LINE
  5
4FA
  8
DATA
  6
CONTINUOUS
 62
     7
 10
22.970000000000041
 20
10.38299999999999
 30
0.0
 11
17.029999999999969
 21
9.7079999999999984
 31
0.0
  0
LINE
  5
4FB
  8
DATA
  6
CONTINUOUS
 62
     7
 10
22.970000000000041
 20
10.38299999999999
 30
0.0
 11
17.029999999999969
 21
9.7079999999999984
 31
0.0
  0
LINE
  5
4FC
  8
DATA
  6
CONTINUOUS
 62
     7
 10
22.970000000000041
 20
11.868
 30
0.0
 11
17.029999999999969
 21
11.193
 31
0.0
  0
LINE
  5
4FD
  8
DATA
  6
CONTINUOUS
 62
     7
 10
22.970000000000041
 20
12.362999999999991
 30
0.0
 11
17.029999999999969
 21
11.688000000000001
 31
0.0
  0
LINE
  5
4FE
  8
DATA
  6
CONTINUOUS
 62
     7
 10
22.970000000000041
 20
12.362999999999991
 30
0.0
 11
17.029999999999969
 21
11.688000000000001
 31
0.0
  0
LINE
  5
4FF
  8
DATA
  6
CONTINUOUS
 62
     7
 10
22.970000000000041
 20
13.848000000000001
 30
0.0
 11
17.029999999999969
 21
13.173
 31
0.0
  0
LINE
  5
500
  8
DATA
  6
CONTINUOUS
 62
     7
 10
22.970000000000041
 20
14.342999999999989
 30
0.0
 11
17.029999999999969
 21
13.66800000000001
 31
0.0
  0
LINE
  5
501
  8
DATA
  6
CONTINUOUS
 62
     7
 10
22.970000000000041
 20
14.342999999999989
 30
0.0
 11
17.029999999999969
 21
13.66800000000001
 31
0.0
  0
LINE
  5
502
  8
DATA
  6
CONTINUOUS
 62
     7
 10
22.970000000000041
 20
15.827999999999991
 30
0.0
 11
17.029999999999969
 21
15.153
 31
0.0
  0
LINE
  5
503
  8
DATA
  6
CONTINUOUS
 62
     7
 10
22.970000000000041
 20
16.323
 30
0.0
 11
17.029999999999969
 21
15.64800000000001
 31
0.0
  0
LINE
  5
504
  8
DATA
  6
CONTINUOUS
 62
     7
 10
22.970000000000041
 20
16.323
 30
0.0
 11
17.029999999999969
 21
15.64800000000001
 31
0.0
  0
LINE
  5
505
  8
DATA
  6
CONTINUOUS
 62
     7
 10
22.970000000000041
 20
17.807999999999989
 30
0.0
 11
17.029999999999969
 21
17.132999999999999
 31
0.0
  0
LINE
  5
506
  8
DATA
  6
CONTINUOUS
 62
     7
 10
22.970000000000041
 20
18.30299999999999
 30
0.0
 11
17.029999999999969
 21
17.628
 31
0.0
  0
LINE
  5
507
  8
DATA
  6
CONTINUOUS
 62
     7
 10
22.970000000000041
 20
18.30299999999999
 30
0.0
 11
17.029999999999969
 21
17.628
 31
0.0
  0
LINE
  5
508
  8
DATA
  6
CONTINUOUS
 62
     7
 10
22.970000000000041
 20
19.788
 30
0.0
 11
17.029999999999969
 21
19.113
 31
0.0
  0
LINE
  5
509
  8
DATA
  6
CONTINUOUS
 62
     7
 10
22.970000000000041
 20
20.283000000000008
 30
0.0
 11
17.029999999999969
 21
19.608000000000001
 31
0.0
  0
LINE
  5
50A
  8
DATA
  6
CONTINUOUS
 62
     7
 10
22.970000000000041
 20
20.283000000000008
 30
0.0
 11
17.029999999999969
 21
19.608000000000001
 31
0.0
  0
LINE
  5
50B
  8
DATA
  6
CONTINUOUS
 62
     7
 10
22.970000000000041
 20
21.76799999999999
 30
0.0
 11
17.029999999999969
 21
21.093000000000011
 31
0.0
  0
LINE
  5
50C
  8
DATA
  6
CONTINUOUS
 62
     7
 10
22.970000000000041
 20
22.263000000000002
 30
0.0
 11
17.029999999999969
 21
21.588000000000012
 31
0.0
  0
LINE
  5
50D
  8
DATA
  6
CONTINUOUS
 62
     7
 10
22.970000000000041
 20
22.263000000000002
 30
0.0
 11
17.029999999999969
 21
21.588000000000012
 31
0.0
  0
LINE
  5
50E
  8
DATA
  6
CONTINUOUS
 62
     7
 10
22.970000000000041
 20
23.748000000000001
 30
0.0
 11
17.029999999999969
 21
23.073000000000011
 31
0.0
  0
LINE
  5
50F
  8
DATA
  6
CONTINUOUS
 62
     7
 10
22.970000000000041
 20
24.242999999999999
 30
0.0
 11
17.029999999999969
 21
23.568000000000001
 31
0.0
  0
LINE
  5
510
  8
DATA
  6
CONTINUOUS
 62
     7
 10
22.970000000000041
 20
-13.37700000000001
 30
0.0
 11
17.029999999999969
 21
-14.051999999999991
 31
0.0
  0
LINE
  5
511
  8
DATA
  6
CONTINUOUS
 62
     7
 10
22.970000000000041
 20
-11.89200000000001
 30
0.0
 11
17.029999999999969
 21
-12.56699999999999
 31
0.0
  0
LINE
  5
512
  8
DATA
  6
CONTINUOUS
 62
     7
 10
22.970000000000041
 20
-11.397
 30
0.0
 11
17.029999999999969
 21
-12.07199999999999
 31
0.0
  0
LINE
  5
513
  8
DATA
  6
CONTINUOUS
 62
     7
 10
22.970000000000041
 20
-11.397
 30
0.0
 11
17.029999999999969
 21
-12.07199999999999
 31
0.0
  0
LINE
  5
514
  8
DATA
  6
CONTINUOUS
 62
     7
 10
22.970000000000041
 20
-9.9120000000000061
 30
0.0
 11
17.029999999999969
 21
-10.586999999999991
 31
0.0
  0
LINE
  5
515
  8
DATA
  6
CONTINUOUS
 62
     7
 10
22.970000000000041
 20
-9.4169999999999998
 30
0.0
 11
17.029999999999969
 21
-10.091999999999979
 31
0.0
  0
LINE
  5
516
  8
DATA
  6
CONTINUOUS
 62
     7
 10
22.970000000000041
 20
-9.4169999999999998
 30
0.0
 11
17.029999999999969
 21
-10.091999999999979
 31
0.0
  0
LINE
  5
517
  8
DATA
  6
CONTINUOUS
 62
     7
 10
22.970000000000041
 20
-7.9320000000000013
 30
0.0
 11
17.029999999999969
 21
-8.6069999999999851
 31
0.0
  0
LINE
  5
518
  8
DATA
  6
CONTINUOUS
 62
     7
 10
22.970000000000041
 20
-7.4369999999999958
 30
0.0
 11
17.029999999999969
 21
-8.1119999999999877
 31
0.0
  0
LINE
  5
519
  8
DATA
  6
CONTINUOUS
 62
     7
 10
22.970000000000041
 20
-7.4369999999999958
 30
0.0
 11
17.029999999999969
 21
-8.1119999999999877
 31
0.0
  0
LINE
  5
51A
  8
DATA
  6
CONTINUOUS
 62
     7
 10
22.970000000000041
 20
-5.9519999999999982
 30
0.0
 11
17.029999999999969
 21
-6.6269999999999882
 31
0.0
  0
LINE
  5
51B
  8
DATA
  6
CONTINUOUS
 62
     7
 10
22.970000000000041
 20
-5.4569999999999999
 30
0.0
 11
17.029999999999969
 21
-6.1319999999999828
 31
0.0
  0
LINE
  5
51C
  8
DATA
  6
CONTINUOUS
 62
     7
 10
22.970000000000041
 20
-5.4569999999999999
 30
0.0
 11
17.029999999999969
 21
-6.1319999999999828
 31
0.0
  0
LINE
  5
51D
  8
DATA
  6
CONTINUOUS
 62
     7
 10
22.970000000000041
 20
-3.972
 30
0.0
 11
17.029999999999969
 21
-4.6469999999999843
 31
0.0
  0
LINE
  5
51E
  8
DATA
  6
CONTINUOUS
 62
     7
 10
22.970000000000041
 20
-3.4769999999999959
 30
0.0
 11
17.029999999999969
 21
-4.1519999999999859
 31
0.0
  0
LINE
  5
51F
  8
DATA
  6
CONTINUOUS
 62
     7
 10
22.970000000000041
 20
-3.4769999999999959
 30
0.0
 11
17.029999999999969
 21
-4.1519999999999859
 31
0.0
  0
LINE
  5
520
  8
DATA
  6
CONTINUOUS
 62
     7
 10
22.970000000000041
 20
-1.9919999999999971
 30
0.0
 11
17.029999999999969
 21
-2.6669999999999869
 31
0.0
  0
LINE
  5
521
  8
DATA
  6
CONTINUOUS
 62
     7
 10
22.970000000000041
 20
-1.4970000000000001
 30
0.0
 11
17.029999999999969
 21
-2.1719999999999891
 31
0.0
  0
LINE
  5
522
  8
DATA
  6
CONTINUOUS
 62
     7
 10
22.970000000000041
 20
-1.4970000000000001
 30
0.0
 11
17.029999999999969
 21
-2.1719999999999891
 31
0.0
  0
LINE
  5
523
  8
DATA
  6
CONTINUOUS
 62
     7
 10
22.970000000000041
 20
-0.0120000000000005
 30
0.0
 11
17.029999999999969
 21
-0.6869999999999905
 31
0.0
  0
LINE
  5
524
  8
DATA
  6
CONTINUOUS
 62
     7
 10
22.970000000000041
 20
0.4829999999999971
 30
0.0
 11
17.029999999999969
 21
-0.1919999999999931
 31
0.0
  0
LINE
  5
525
  8
DATA
  6
CONTINUOUS
 62
     7
 10
22.970000000000041
 20
0.4829999999999971
 30
0.0
 11
17.029999999999969
 21
-0.1919999999999931
 31
0.0
  0
LINE
  5
526
  8
DATA
  6
CONTINUOUS
 62
     7
 10
22.970000000000041
 20
1.9679999999999891
 30
0.0
 11
17.029999999999969
 21
1.2930000000000059
 31
0.0
  0
LINE
  5
527
  8
DATA
  6
CONTINUOUS
 62
     7
 10
22.970000000000041
 20
2.462999999999993
 30
0.0
 11
17.029999999999969
 21
1.787999999999996
 31
0.0
  0
LINE
  5
528
  8
DATA
  6
CONTINUOUS
 62
     7
 10
22.970000000000041
 20
2.462999999999993
 30
0.0
 11
17.029999999999969
 21
1.787999999999996
 31
0.0
  0
LINE
  5
529
  8
DATA
  6
CONTINUOUS
 62
     7
 10
22.970000000000041
 20
3.947999999999992
 30
0.0
 11
17.029999999999969
 21
3.2730000000000099
 31
0.0
  0
LINE
  5
52A
  8
DATA
  6
CONTINUOUS
 62
     7
 10
22.970000000000041
 20
4.442999999999997
 30
0.0
 11
17.029999999999969
 21
3.7679999999999998
 31
0.0
  0
LINE
  5
52B
  8
DATA
  6
CONTINUOUS
 62
     7
 10
22.970000000000041
 20
4.442999999999997
 30
0.0
 11
17.029999999999969
 21
3.7679999999999998
 31
0.0
  0
LINE
  5
52C
  8
DATA
  6
CONTINUOUS
 62
     7
 10
22.970000000000041
 20
5.9279999999999964
 30
0.0
 11
17.029999999999969
 21
5.2530000000000001
 31
0.0
  0
LINE
  5
52D
  8
DATA
  6
CONTINUOUS
 62
     7
 10
22.970000000000041
 20
6.4229999999999867
 30
0.0
 11
17.029999999999969
 21
5.7480000000000038
 31
0.0
  0
LINE
  5
52E
  8
DATA
  6
CONTINUOUS
 62
     7
 10
22.970000000000041
 20
6.4229999999999867
 30
0.0
 11
17.029999999999969
 21
5.7480000000000038
 31
0.0
  0
LINE
  5
52F
  8
DATA
  6
CONTINUOUS
 62
     7
 10
22.970000000000041
 20
7.9080000000000013
 30
0.0
 11
17.029999999999969
 21
7.2330000000000032
 31
0.0
  0
LINE
  5
530
  8
DATA
  6
CONTINUOUS
 62
     7
 10
22.970000000000041
 20
8.4029999999999898
 30
0.0
 11
17.029999999999969
 21
7.7279999999999927
 31
0.0
  0
LINE
  5
531
  8
DATA
  6
CONTINUOUS
 62
     7
 10
22.970000000000041
 20
8.4029999999999898
 30
0.0
 11
17.029999999999969
 21
7.7279999999999927
 31
0.0
  0
LINE
  5
532
  8
DATA
  6
CONTINUOUS
 62
     7
 10
22.970000000000041
 20
9.887999999999991
 30
0.0
 11
17.029999999999969
 21
9.2130000000000081
 31
0.0
  0
LINE
  5
533
  8
DATA
  6
CONTINUOUS
 62
     7
 10
22.970000000000041
 20
10.38299999999999
 30
0.0
 11
17.029999999999969
 21
9.7079999999999984
 31
0.0
  0
LINE
  5
534
  8
DATA
  6
CONTINUOUS
 62
     7
 10
22.970000000000041
 20
10.38299999999999
 30
0.0
 11
17.029999999999969
 21
9.7079999999999984
 31
0.0
  0
LINE
  5
535
  8
DATA
  6
CONTINUOUS
 62
     7
 10
22.970000000000041
 20
11.868
 30
0.0
 11
17.029999999999969
 21
11.193
 31
0.0
  0
LINE
  5
536
  8
DATA
  6
CONTINUOUS
 62
     7
 10
22.970000000000041
 20
12.362999999999991
 30
0.0
 11
17.029999999999969
 21
11.688000000000001
 31
0.0
  0
LINE
  5
537
  8
DATA
  6
CONTINUOUS
 62
     7
 10
22.970000000000041
 20
12.362999999999991
 30
0.0
 11
17.029999999999969
 21
11.688000000000001
 31
0.0
  0
LINE
  5
538
  8
DATA
  6
CONTINUOUS
 62
     7
 10
22.970000000000041
 20
13.848000000000001
 30
0.0
 11
17.029999999999969
 21
13.173
 31
0.0
  0
LINE
  5
539
  8
DATA
  6
CONTINUOUS
 62
     7
 10
22.970000000000041
 20
14.342999999999989
 30
0.0
 11
17.029999999999969
 21
13.66800000000001
 31
0.0
  0
LINE
  5
53A
  8
DATA
  6
CONTINUOUS
 62
     7
 10
22.970000000000041
 20
14.342999999999989
 30
0.0
 11
17.029999999999969
 21
13.66800000000001
 31
0.0
  0
LINE
  5
53B
  8
DATA
  6
CONTINUOUS
 62
     7
 10
22.970000000000041
 20
15.827999999999991
 30
0.0
 11
17.029999999999969
 21
15.153
 31
0.0
  0
LINE
  5
53C
  8
DATA
  6
CONTINUOUS
 62
     7
 10
22.970000000000041
 20
16.323
 30
0.0
 11
17.029999999999969
 21
15.64800000000001
 31
0.0
  0
LINE
  5
53D
  8
DATA
  6
CONTINUOUS
 62
     7
 10
22.970000000000041
 20
16.323
 30
0.0
 11
17.029999999999969
 21
15.64800000000001
 31
0.0
  0
LINE
  5
53E
  8
DATA
  6
CONTINUOUS
 62
     7
 10
22.970000000000041
 20
17.807999999999989
 30
0.0
 11
17.029999999999969
 21
17.132999999999999
 31
0.0
  0
LINE
  5
53F
  8
DATA
  6
CONTINUOUS
 62
     7
 10
22.970000000000041
 20
18.30299999999999
 30
0.0
 11
17.029999999999969
 21
17.628
 31
0.0
  0
LINE
  5
540
  8
DATA
  6
CONTINUOUS
 62
     7
 10
22.970000000000041
 20
18.30299999999999
 30
0.0
 11
17.029999999999969
 21
17.628
 31
0.0
  0
LINE
  5
541
  8
DATA
  6
CONTINUOUS
 62
     7
 10
22.970000000000041
 20
19.788
 30
0.0
 11
17.029999999999969
 21
19.113
 31
0.0
  0
LINE
  5
542
  8
DATA
  6
CONTINUOUS
 62
     7
 10
22.970000000000041
 20
20.283000000000008
 30
0.0
 11
17.029999999999969
 21
19.608000000000001
 31
0.0
  0
LINE
  5
543
  8
DATA
  6
CONTINUOUS
 62
     7
 10
22.970000000000041
 20
20.283000000000008
 30
0.0
 11
17.029999999999969
 21
19.608000000000001
 31
0.0
  0
LINE
  5
544
  8
DATA
  6
CONTINUOUS
 62
     7
 10
22.970000000000041
 20
21.76799999999999
 30
0.0
 11
17.029999999999969
 21
21.093000000000011
 31
0.0
  0
LINE
  5
545
  8
DATA
  6
CONTINUOUS
 62
     7
 10
22.970000000000041
 20
22.263000000000002
 30
0.0
 11
17.029999999999969
 21
21.588000000000012
 31
0.0
  0
LINE
  5
546
  8
DATA
  6
CONTINUOUS
 62
     7
 10
22.970000000000041
 20
22.263000000000002
 30
0.0
 11
17.029999999999969
 21
21.588000000000012
 31
0.0
  0
LINE
  5
547
  8
DATA
  6
CONTINUOUS
 62
     7
 10
22.970000000000041
 20
23.748000000000001
 30
0.0
 11
17.029999999999969
 21
23.073000000000011
 31
0.0
  0
LINE
  5
548
  8
DATA
  6
CONTINUOUS
 62
     7
 10
22.970000000000041
 20
24.242999999999999
 30
0.0
 11
17.029999999999969
 21
23.568000000000001
 31
0.0
  0
LINE
  5
549
  8
DATA
  6
CONTINUOUS
 62
     7
 10
22.970000000000041
 20
24.242999999999999
 30
0.0
 11
17.029999999999969
 21
23.568000000000001
 31
0.0
  0
LINE
  5
54A
  8
DATA
  6
CONTINUOUS
 62
     7
 10
22.970000000000041
 20
25.728000000000002
 30
0.0
 11
17.029999999999969
 21
25.053000000000019
 31
0.0
  0
LINE
  5
54B
  8
DATA
  6
CONTINUOUS
 62
     7
 10
22.970000000000041
 20
26.22300000000001
 30
0.0
 11
17.029999999999969
 21
25.54800000000002
 31
0.0
  0
LINE
  5
54C
  8
DATA
  6
CONTINUOUS
 62
     7
 10
22.970000000000041
 20
-11.397
 30
0.0
 11
17.029999999999969
 21
-12.07199999999999
 31
0.0
  0
LINE
  5
54D
  8
DATA
  6
CONTINUOUS
 62
     7
 10
22.970000000000041
 20
-9.9120000000000061
 30
0.0
 11
17.029999999999969
 21
-10.586999999999991
 31
0.0
  0
LINE
  5
54E
  8
DATA
  6
CONTINUOUS
 62
     7
 10
22.970000000000041
 20
-9.4169999999999998
 30
0.0
 11
17.029999999999969
 21
-10.091999999999979
 31
0.0
  0
LINE
  5
54F
  8
DATA
  6
CONTINUOUS
 62
     7
 10
22.970000000000041
 20
-9.4169999999999998
 30
0.0
 11
17.029999999999969
 21
-10.091999999999979
 31
0.0
  0
LINE
  5
550
  8
DATA
  6
CONTINUOUS
 62
     7
 10
22.970000000000041
 20
-7.9320000000000013
 30
0.0
 11
17.029999999999969
 21
-8.6069999999999851
 31
0.0
  0
LINE
  5
551
  8
DATA
  6
CONTINUOUS
 62
     7
 10
22.970000000000041
 20
-7.4369999999999958
 30
0.0
 11
17.029999999999969
 21
-8.1119999999999877
 31
0.0
  0
LINE
  5
552
  8
DATA
  6
CONTINUOUS
 62
     7
 10
22.970000000000041
 20
-7.4369999999999958
 30
0.0
 11
17.029999999999969
 21
-8.1119999999999877
 31
0.0
  0
LINE
  5
553
  8
DATA
  6
CONTINUOUS
 62
     7
 10
22.970000000000041
 20
-5.9519999999999982
 30
0.0
 11
17.029999999999969
 21
-6.6269999999999882
 31
0.0
  0
LINE
  5
554
  8
DATA
  6
CONTINUOUS
 62
     7
 10
22.970000000000041
 20
-5.4569999999999999
 30
0.0
 11
17.029999999999969
 21
-6.1319999999999828
 31
0.0
  0
LINE
  5
555
  8
DATA
  6
CONTINUOUS
 62
     7
 10
22.970000000000041
 20
-5.4569999999999999
 30
0.0
 11
17.029999999999969
 21
-6.1319999999999828
 31
0.0
  0
LINE
  5
556
  8
DATA
  6
CONTINUOUS
 62
     7
 10
22.970000000000041
 20
-3.972
 30
0.0
 11
17.029999999999969
 21
-4.6469999999999843
 31
0.0
  0
LINE
  5
557
  8
DATA
  6
CONTINUOUS
 62
     7
 10
22.970000000000041
 20
-3.4769999999999959
 30
0.0
 11
17.029999999999969
 21
-4.1519999999999859
 31
0.0
  0
LINE
  5
558
  8
DATA
  6
CONTINUOUS
 62
     7
 10
22.970000000000041
 20
-3.4769999999999959
 30
0.0
 11
17.029999999999969
 21
-4.1519999999999859
 31
0.0
  0
LINE
  5
559
  8
DATA
  6
CONTINUOUS
 62
     7
 10
22.970000000000041
 20
-1.9919999999999971
 30
0.0
 11
17.029999999999969
 21
-2.6669999999999869
 31
0.0
  0
LINE
  5
55A
  8
DATA
  6
CONTINUOUS
 62
     7
 10
22.970000000000041
 20
-1.4970000000000001
 30
0.0
 11
17.029999999999969
 21
-2.1719999999999891
 31
0.0
  0
LINE
  5
55B
  8
DATA
  6
CONTINUOUS
 62
     7
 10
22.970000000000041
 20
-1.4970000000000001
 30
0.0
 11
17.029999999999969
 21
-2.1719999999999891
 31
0.0
  0
LINE
  5
55C
  8
DATA
  6
CONTINUOUS
 62
     7
 10
22.970000000000041
 20
-0.0120000000000005
 30
0.0
 11
17.029999999999969
 21
-0.6869999999999905
 31
0.0
  0
LINE
  5
55D
  8
DATA
  6
CONTINUOUS
 62
     7
 10
22.970000000000041
 20
0.4829999999999971
 30
0.0
 11
17.029999999999969
 21
-0.1919999999999931
 31
0.0
  0
LINE
  5
55E
  8
DATA
  6
CONTINUOUS
 62
     7
 10
22.970000000000041
 20
0.4829999999999971
 30
0.0
 11
17.029999999999969
 21
-0.1919999999999931
 31
0.0
  0
LINE
  5
55F
  8
DATA
  6
CONTINUOUS
 62
     7
 10
22.970000000000041
 20
1.9679999999999891
 30
0.0
 11
17.029999999999969
 21
1.2930000000000059
 31
0.0
  0
LINE
  5
560
  8
DATA
  6
CONTINUOUS
 62
     7
 10
22.970000000000041
 20
2.462999999999993
 30
0.0
 11
17.029999999999969
 21
1.787999999999996
 31
0.0
  0
LINE
  5
561
  8
DATA
  6
CONTINUOUS
 62
     7
 10
22.970000000000041
 20
2.462999999999993
 30
0.0
 11
17.029999999999969
 21
1.787999999999996
 31
0.0
  0
LINE
  5
562
  8
DATA
  6
CONTINUOUS
 62
     7
 10
22.970000000000041
 20
3.947999999999992
 30
0.0
 11
17.029999999999969
 21
3.2730000000000099
 31
0.0
  0
LINE
  5
563
  8
DATA
  6
CONTINUOUS
 62
     7
 10
22.970000000000041
 20
4.442999999999997
 30
0.0
 11
17.029999999999969
 21
3.7679999999999998
 31
0.0
  0
LINE
  5
564
  8
DATA
  6
CONTINUOUS
 62
     7
 10
22.970000000000041
 20
4.442999999999997
 30
0.0
 11
17.029999999999969
 21
3.7679999999999998
 31
0.0
  0
LINE
  5
565
  8
DATA
  6
CONTINUOUS
 62
     7
 10
22.970000000000041
 20
5.9279999999999964
 30
0.0
 11
17.029999999999969
 21
5.2530000000000001
 31
0.0
  0
LINE
  5
566
  8
DATA
  6
CONTINUOUS
 62
     7
 10
22.970000000000041
 20
6.4229999999999867
 30
0.0
 11
17.029999999999969
 21
5.7480000000000038
 31
0.0
  0
LINE
  5
567
  8
DATA
  6
CONTINUOUS
 62
     7
 10
22.970000000000041
 20
6.4229999999999867
 30
0.0
 11
17.029999999999969
 21
5.7480000000000038
 31
0.0
  0
LINE
  5
568
  8
DATA
  6
CONTINUOUS
 62
     7
 10
22.970000000000041
 20
7.9080000000000013
 30
0.0
 11
17.029999999999969
 21
7.2330000000000032
 31
0.0
  0
LINE
  5
569
  8
DATA
  6
CONTINUOUS
 62
     7
 10
22.970000000000041
 20
8.4029999999999898
 30
0.0
 11
17.029999999999969
 21
7.7279999999999927
 31
0.0
  0
LINE
  5
56A
  8
DATA
  6
CONTINUOUS
 62
     7
 10
22.970000000000041
 20
8.4029999999999898
 30
0.0
 11
17.029999999999969
 21
7.7279999999999927
 31
0.0
  0
LINE
  5
56B
  8
DATA
  6
CONTINUOUS
 62
     7
 10
22.970000000000041
 20
9.887999999999991
 30
0.0
 11
17.029999999999969
 21
9.2130000000000081
 31
0.0
  0
LINE
  5
56C
  8
DATA
  6
CONTINUOUS
 62
     7
 10
22.970000000000041
 20
10.38299999999999
 30
0.0
 11
17.029999999999969
 21
9.7079999999999984
 31
0.0
  0
LINE
  5
56D
  8
DATA
  6
CONTINUOUS
 62
     7
 10
22.970000000000041
 20
10.38299999999999
 30
0.0
 11
17.029999999999969
 21
9.7079999999999984
 31
0.0
  0
LINE
  5
56E
  8
DATA
  6
CONTINUOUS
 62
     7
 10
22.970000000000041
 20
11.868
 30
0.0
 11
17.029999999999969
 21
11.193
 31
0.0
  0
LINE
  5
56F
  8
DATA
  6
CONTINUOUS
 62
     7
 10
22.970000000000041
 20
12.362999999999991
 30
0.0
 11
17.029999999999969
 21
11.688000000000001
 31
0.0
  0
LINE
  5
570
  8
DATA
  6
CONTINUOUS
 62
     7
 10
22.970000000000041
 20
12.362999999999991
 30
0.0
 11
17.029999999999969
 21
11.688000000000001
 31
0.0
  0
LINE
  5
571
  8
DATA
  6
CONTINUOUS
 62
     7
 10
22.970000000000041
 20
13.848000000000001
 30
0.0
 11
17.029999999999969
 21
13.173
 31
0.0
  0
LINE
  5
572
  8
DATA
  6
CONTINUOUS
 62
     7
 10
22.970000000000041
 20
14.342999999999989
 30
0.0
 11
17.029999999999969
 21
13.66800000000001
 31
0.0
  0
LINE
  5
573
  8
DATA
  6
CONTINUOUS
 62
     7
 10
22.970000000000041
 20
14.342999999999989
 30
0.0
 11
17.029999999999969
 21
13.66800000000001
 31
0.0
  0
LINE
  5
574
  8
DATA
  6
CONTINUOUS
 62
     7
 10
22.970000000000041
 20
15.827999999999991
 30
0.0
 11
17.029999999999969
 21
15.153
 31
0.0
  0
LINE
  5
575
  8
DATA
  6
CONTINUOUS
 62
     7
 10
22.970000000000041
 20
16.323
 30
0.0
 11
17.029999999999969
 21
15.64800000000001
 31
0.0
  0
LINE
  5
576
  8
DATA
  6
CONTINUOUS
 62
     7
 10
22.970000000000041
 20
16.323
 30
0.0
 11
17.029999999999969
 21
15.64800000000001
 31
0.0
  0
LINE
  5
577
  8
DATA
  6
CONTINUOUS
 62
     7
 10
22.970000000000041
 20
17.807999999999989
 30
0.0
 11
17.029999999999969
 21
17.132999999999999
 31
0.0
  0
LINE
  5
578
  8
DATA
  6
CONTINUOUS
 62
     7
 10
22.970000000000041
 20
18.30299999999999
 30
0.0
 11
17.029999999999969
 21
17.628
 31
0.0
  0
LINE
  5
579
  8
DATA
  6
CONTINUOUS
 62
     7
 10
22.970000000000041
 20
18.30299999999999
 30
0.0
 11
17.029999999999969
 21
17.628
 31
0.0
  0
LINE
  5
57A
  8
DATA
  6
CONTINUOUS
 62
     7
 10
22.970000000000041
 20
19.788
 30
0.0
 11
17.029999999999969
 21
19.113
 31
0.0
  0
LINE
  5
57B
  8
DATA
  6
CONTINUOUS
 62
     7
 10
22.970000000000041
 20
20.283000000000008
 30
0.0
 11
17.029999999999969
 21
19.608000000000001
 31
0.0
  0
LINE
  5
57C
  8
DATA
  6
CONTINUOUS
 62
     7
 10
22.970000000000041
 20
20.283000000000008
 30
0.0
 11
17.029999999999969
 21
19.608000000000001
 31
0.0
  0
LINE
  5
57D
  8
DATA
  6
CONTINUOUS
 62
     7
 10
22.970000000000041
 20
21.76799999999999
 30
0.0
 11
17.029999999999969
 21
21.093000000000011
 31
0.0
  0
LINE
  5
57E
  8
DATA
  6
CONTINUOUS
 62
     7
 10
22.970000000000041
 20
22.263000000000002
 30
0.0
 11
17.029999999999969
 21
21.588000000000012
 31
0.0
  0
LINE
  5
57F
  8
DATA
  6
CONTINUOUS
 62
     7
 10
22.970000000000041
 20
22.263000000000002
 30
0.0
 11
17.029999999999969
 21
21.588000000000012
 31
0.0
  0
LINE
  5
580
  8
DATA
  6
CONTINUOUS
 62
     7
 10
22.970000000000041
 20
23.748000000000001
 30
0.0
 11
17.029999999999969
 21
23.073000000000011
 31
0.0
  0
LINE
  5
581
  8
DATA
  6
CONTINUOUS
 62
     7
 10
22.970000000000041
 20
24.242999999999999
 30
0.0
 11
17.029999999999969
 21
23.568000000000001
 31
0.0
  0
LINE
  5
582
  8
DATA
  6
CONTINUOUS
 62
     7
 10
22.970000000000041
 20
24.242999999999999
 30
0.0
 11
17.029999999999969
 21
23.568000000000001
 31
0.0
  0
LINE
  5
583
  8
DATA
  6
CONTINUOUS
 62
     7
 10
22.970000000000041
 20
25.728000000000002
 30
0.0
 11
17.029999999999969
 21
25.053000000000019
 31
0.0
  0
LINE
  5
584
  8
DATA
  6
CONTINUOUS
 62
     7
 10
22.970000000000041
 20
26.22300000000001
 30
0.0
 11
17.029999999999969
 21
25.54800000000002
 31
0.0
  0
LINE
  5
585
  8
DATA
  6
CONTINUOUS
 62
     7
 10
22.970000000000041
 20
26.22300000000001
 30
0.0
 11
17.029999999999969
 21
25.54800000000002
 31
0.0
  0
LINE
  5
586
  8
DATA
  6
CONTINUOUS
 62
     7
 10
22.970000000000041
 20
27.707999999999991
 30
0.0
 11
17.029999999999969
 21
27.033000000000008
 31
0.0
  0
LINE
  5
587
  8
DATA
  6
CONTINUOUS
 62
     7
 10
22.970000000000041
 20
28.202999999999999
 30
0.0
 11
17.029999999999969
 21
27.528000000000009
 31
0.0
  0
LINE
  5
588
  8
DATA
  6
CONTINUOUS
 62
     7
 10
22.970000000000041
 20
-9.4169999999999998
 30
0.0
 11
17.029999999999969
 21
-10.091999999999979
 31
0.0
  0
LINE
  5
589
  8
DATA
  6
CONTINUOUS
 62
     7
 10
22.970000000000041
 20
-7.9320000000000013
 30
0.0
 11
17.029999999999969
 21
-8.6069999999999851
 31
0.0
  0
LINE
  5
58A
  8
DATA
  6
CONTINUOUS
 62
     7
 10
22.970000000000041
 20
-7.4369999999999958
 30
0.0
 11
17.029999999999969
 21
-8.1119999999999877
 31
0.0
  0
LINE
  5
58B
  8
DATA
  6
CONTINUOUS
 62
     7
 10
22.970000000000041
 20
-7.4369999999999958
 30
0.0
 11
17.029999999999969
 21
-8.1119999999999877
 31
0.0
  0
LINE
  5
58C
  8
DATA
  6
CONTINUOUS
 62
     7
 10
22.970000000000041
 20
-5.9519999999999982
 30
0.0
 11
17.029999999999969
 21
-6.6269999999999882
 31
0.0
  0
LINE
  5
58D
  8
DATA
  6
CONTINUOUS
 62
     7
 10
22.970000000000041
 20
-5.4569999999999999
 30
0.0
 11
17.029999999999969
 21
-6.1319999999999828
 31
0.0
  0
LINE
  5
58E
  8
DATA
  6
CONTINUOUS
 62
     7
 10
22.970000000000041
 20
-5.4569999999999999
 30
0.0
 11
17.029999999999969
 21
-6.1319999999999828
 31
0.0
  0
LINE
  5
58F
  8
DATA
  6
CONTINUOUS
 62
     7
 10
22.970000000000041
 20
-3.972
 30
0.0
 11
17.029999999999969
 21
-4.6469999999999843
 31
0.0
  0
LINE
  5
590
  8
DATA
  6
CONTINUOUS
 62
     7
 10
22.970000000000041
 20
-3.4769999999999959
 30
0.0
 11
17.029999999999969
 21
-4.1519999999999859
 31
0.0
  0
LINE
  5
591
  8
DATA
  6
CONTINUOUS
 62
     7
 10
22.970000000000041
 20
-3.4769999999999959
 30
0.0
 11
17.029999999999969
 21
-4.1519999999999859
 31
0.0
  0
LINE
  5
592
  8
DATA
  6
CONTINUOUS
 62
     7
 10
22.970000000000041
 20
-1.9919999999999971
 30
0.0
 11
17.029999999999969
 21
-2.6669999999999869
 31
0.0
  0
LINE
  5
593
  8
DATA
  6
CONTINUOUS
 62
     7
 10
22.970000000000041
 20
-1.4970000000000001
 30
0.0
 11
17.029999999999969
 21
-2.1719999999999891
 31
0.0
  0
LINE
  5
594
  8
DATA
  6
CONTINUOUS
 62
     7
 10
22.970000000000041
 20
-1.4970000000000001
 30
0.0
 11
17.029999999999969
 21
-2.1719999999999891
 31
0.0
  0
LINE
  5
595
  8
DATA
  6
CONTINUOUS
 62
     7
 10
22.970000000000041
 20
-0.0120000000000005
 30
0.0
 11
17.029999999999969
 21
-0.6869999999999905
 31
0.0
  0
LINE
  5
596
  8
DATA
  6
CONTINUOUS
 62
     7
 10
22.970000000000041
 20
0.4829999999999971
 30
0.0
 11
17.029999999999969
 21
-0.1919999999999931
 31
0.0
  0
LINE
  5
597
  8
DATA
  6
CONTINUOUS
 62
     7
 10
22.970000000000041
 20
0.4829999999999971
 30
0.0
 11
17.029999999999969
 21
-0.1919999999999931
 31
0.0
  0
LINE
  5
598
  8
DATA
  6
CONTINUOUS
 62
     7
 10
22.970000000000041
 20
1.9679999999999891
 30
0.0
 11
17.029999999999969
 21
1.2930000000000059
 31
0.0
  0
LINE
  5
599
  8
DATA
  6
CONTINUOUS
 62
     7
 10
22.970000000000041
 20
2.462999999999993
 30
0.0
 11
17.029999999999969
 21
1.787999999999996
 31
0.0
  0
LINE
  5
59A
  8
DATA
  6
CONTINUOUS
 62
     7
 10
22.970000000000041
 20
2.462999999999993
 30
0.0
 11
17.029999999999969
 21
1.787999999999996
 31
0.0
  0
LINE
  5
59B
  8
DATA
  6
CONTINUOUS
 62
     7
 10
22.970000000000041
 20
3.947999999999992
 30
0.0
 11
17.029999999999969
 21
3.2730000000000099
 31
0.0
  0
LINE
  5
59C
  8
DATA
  6
CONTINUOUS
 62
     7
 10
22.970000000000041
 20
4.442999999999997
 30
0.0
 11
17.029999999999969
 21
3.7679999999999998
 31
0.0
  0
LINE
  5
59D
  8
DATA
  6
CONTINUOUS
 62
     7
 10
22.970000000000041
 20
4.442999999999997
 30
0.0
 11
17.029999999999969
 21
3.7679999999999998
 31
0.0
  0
LINE
  5
59E
  8
DATA
  6
CONTINUOUS
 62
     7
 10
22.970000000000041
 20
5.9279999999999964
 30
0.0
 11
17.029999999999969
 21
5.2530000000000001
 31
0.0
  0
LINE
  5
59F
  8
DATA
  6
CONTINUOUS
 62
     7
 10
22.970000000000041
 20
6.4229999999999867
 30
0.0
 11
17.029999999999969
 21
5.7480000000000038
 31
0.0
  0
LINE
  5
5A0
  8
DATA
  6
CONTINUOUS
 62
     7
 10
22.970000000000041
 20
6.4229999999999867
 30
0.0
 11
17.029999999999969
 21
5.7480000000000038
 31
0.0
  0
LINE
  5
5A1
  8
DATA
  6
CONTINUOUS
 62
     7
 10
22.970000000000041
 20
7.9080000000000013
 30
0.0
 11
17.029999999999969
 21
7.2330000000000032
 31
0.0
  0
LINE
  5
5A2
  8
DATA
  6
CONTINUOUS
 62
     7
 10
22.970000000000041
 20
8.4029999999999898
 30
0.0
 11
17.029999999999969
 21
7.7279999999999927
 31
0.0
  0
LINE
  5
5A3
  8
DATA
  6
CONTINUOUS
 62
     7
 10
22.970000000000041
 20
8.4029999999999898
 30
0.0
 11
17.029999999999969
 21
7.7279999999999927
 31
0.0
  0
LINE
  5
5A4
  8
DATA
  6
CONTINUOUS
 62
     7
 10
22.970000000000041
 20
9.887999999999991
 30
0.0
 11
17.029999999999969
 21
9.2130000000000081
 31
0.0
  0
LINE
  5
5A5
  8
DATA
  6
CONTINUOUS
 62
     7
 10
22.970000000000041
 20
10.38299999999999
 30
0.0
 11
17.029999999999969
 21
9.7079999999999984
 31
0.0
  0
LINE
  5
5A6
  8
DATA
  6
CONTINUOUS
 62
     7
 10
22.970000000000041
 20
10.38299999999999
 30
0.0
 11
17.029999999999969
 21
9.7079999999999984
 31
0.0
  0
LINE
  5
5A7
  8
DATA
  6
CONTINUOUS
 62
     7
 10
22.970000000000041
 20
11.868
 30
0.0
 11
17.029999999999969
 21
11.193
 31
0.0
  0
LINE
  5
5A8
  8
DATA
  6
CONTINUOUS
 62
     7
 10
22.970000000000041
 20
12.362999999999991
 30
0.0
 11
17.029999999999969
 21
11.688000000000001
 31
0.0
  0
LINE
  5
5A9
  8
DATA
  6
CONTINUOUS
 62
     7
 10
22.970000000000041
 20
12.362999999999991
 30
0.0
 11
17.029999999999969
 21
11.688000000000001
 31
0.0
  0
LINE
  5
5AA
  8
DATA
  6
CONTINUOUS
 62
     7
 10
22.970000000000041
 20
13.848000000000001
 30
0.0
 11
17.029999999999969
 21
13.173
 31
0.0
  0
LINE
  5
5AB
  8
DATA
  6
CONTINUOUS
 62
     7
 10
22.970000000000041
 20
14.342999999999989
 30
0.0
 11
17.029999999999969
 21
13.66800000000001
 31
0.0
  0
LINE
  5
5AC
  8
DATA
  6
CONTINUOUS
 62
     7
 10
22.970000000000041
 20
14.342999999999989
 30
0.0
 11
17.029999999999969
 21
13.66800000000001
 31
0.0
  0
LINE
  5
5AD
  8
DATA
  6
CONTINUOUS
 62
     7
 10
22.970000000000041
 20
15.827999999999991
 30
0.0
 11
17.029999999999969
 21
15.153
 31
0.0
  0
LINE
  5
5AE
  8
DATA
  6
CONTINUOUS
 62
     7
 10
22.970000000000041
 20
16.323
 30
0.0
 11
17.029999999999969
 21
15.64800000000001
 31
0.0
  0
LINE
  5
5AF
  8
DATA
  6
CONTINUOUS
 62
     7
 10
22.970000000000041
 20
16.323
 30
0.0
 11
17.029999999999969
 21
15.64800000000001
 31
0.0
  0
LINE
  5
5B0
  8
DATA
  6
CONTINUOUS
 62
     7
 10
22.970000000000041
 20
17.807999999999989
 30
0.0
 11
17.029999999999969
 21
17.132999999999999
 31
0.0
  0
LINE
  5
5B1
  8
DATA
  6
CONTINUOUS
 62
     7
 10
22.970000000000041
 20
18.30299999999999
 30
0.0
 11
17.029999999999969
 21
17.628
 31
0.0
  0
LINE
  5
5B2
  8
DATA
  6
CONTINUOUS
 62
     7
 10
22.970000000000041
 20
18.30299999999999
 30
0.0
 11
17.029999999999969
 21
17.628
 31
0.0
  0
LINE
  5
5B3
  8
DATA
  6
CONTINUOUS
 62
     7
 10
22.970000000000041
 20
19.788
 30
0.0
 11
17.029999999999969
 21
19.113
 31
0.0
  0
LINE
  5
5B4
  8
DATA
  6
CONTINUOUS
 62
     7
 10
22.970000000000041
 20
20.283000000000008
 30
0.0
 11
17.029999999999969
 21
19.608000000000001
 31
0.0
  0
LINE
  5
5B5
  8
DATA
  6
CONTINUOUS
 62
     7
 10
22.970000000000041
 20
20.283000000000008
 30
0.0
 11
17.029999999999969
 21
19.608000000000001
 31
0.0
  0
LINE
  5
5B6
  8
DATA
  6
CONTINUOUS
 62
     7
 10
22.970000000000041
 20
21.76799999999999
 30
0.0
 11
17.029999999999969
 21
21.093000000000011
 31
0.0
  0
LINE
  5
5B7
  8
DATA
  6
CONTINUOUS
 62
     7
 10
22.970000000000041
 20
22.263000000000002
 30
0.0
 11
17.029999999999969
 21
21.588000000000012
 31
0.0
  0
LINE
  5
5B8
  8
DATA
  6
CONTINUOUS
 62
     7
 10
22.970000000000041
 20
22.263000000000002
 30
0.0
 11
17.029999999999969
 21
21.588000000000012
 31
0.0
  0
LINE
  5
5B9
  8
DATA
  6
CONTINUOUS
 62
     7
 10
22.970000000000041
 20
23.748000000000001
 30
0.0
 11
17.029999999999969
 21
23.073000000000011
 31
0.0
  0
LINE
  5
5BA
  8
DATA
  6
CONTINUOUS
 62
     7
 10
22.970000000000041
 20
24.242999999999999
 30
0.0
 11
17.029999999999969
 21
23.568000000000001
 31
0.0
  0
LINE
  5
5BB
  8
DATA
  6
CONTINUOUS
 62
     7
 10
22.970000000000041
 20
24.242999999999999
 30
0.0
 11
17.029999999999969
 21
23.568000000000001
 31
0.0
  0
LINE
  5
5BC
  8
DATA
  6
CONTINUOUS
 62
     7
 10
22.970000000000041
 20
25.728000000000002
 30
0.0
 11
17.029999999999969
 21
25.053000000000019
 31
0.0
  0
LINE
  5
5BD
  8
DATA
  6
CONTINUOUS
 62
     7
 10
22.970000000000041
 20
26.22300000000001
 30
0.0
 11
17.029999999999969
 21
25.54800000000002
 31
0.0
  0
LINE
  5
5BE
  8
DATA
  6
CONTINUOUS
 62
     7
 10
22.970000000000041
 20
26.22300000000001
 30
0.0
 11
17.029999999999969
 21
25.54800000000002
 31
0.0
  0
LINE
  5
5BF
  8
DATA
  6
CONTINUOUS
 62
     7
 10
22.970000000000041
 20
27.707999999999991
 30
0.0
 11
17.029999999999969
 21
27.033000000000008
 31
0.0
  0
LINE
  5
5C0
  8
DATA
  6
CONTINUOUS
 62
     7
 10
22.970000000000041
 20
28.202999999999999
 30
0.0
 11
17.029999999999969
 21
27.528000000000009
 31
0.0
  0
LINE
  5
5C1
  8
DATA
  6
CONTINUOUS
 62
     7
 10
22.970000000000041
 20
28.202999999999999
 30
0.0
 11
17.029999999999969
 21
27.528000000000009
 31
0.0
  0
LINE
  5
5C2
  8
DATA
  6
CONTINUOUS
 62
     7
 10
22.970000000000041
 20
29.688000000000009
 30
0.0
 11
17.029999999999969
 21
29.013000000000009
 31
0.0
  0
LINE
  5
5C3
  8
DATA
  6
CONTINUOUS
 62
     7
 10
22.970000000000041
 20
30.183
 30
0.0
 11
17.029999999999969
 21
29.50800000000001
 31
0.0
  0
LINE
  5
5C4
  8
DATA
  6
CONTINUOUS
 62
     7
 10
22.970000000000041
 20
-7.4369999999999958
 30
0.0
 11
17.029999999999969
 21
-8.1119999999999877
 31
0.0
  0
LINE
  5
5C5
  8
DATA
  6
CONTINUOUS
 62
     7
 10
22.970000000000041
 20
-5.9519999999999982
 30
0.0
 11
17.029999999999969
 21
-6.6269999999999882
 31
0.0
  0
LINE
  5
5C6
  8
DATA
  6
CONTINUOUS
 62
     7
 10
22.970000000000041
 20
-5.4569999999999999
 30
0.0
 11
17.029999999999969
 21
-6.1319999999999828
 31
0.0
  0
LINE
  5
5C7
  8
DATA
  6
CONTINUOUS
 62
     7
 10
22.970000000000041
 20
-5.4569999999999999
 30
0.0
 11
17.029999999999969
 21
-6.1319999999999828
 31
0.0
  0
LINE
  5
5C8
  8
DATA
  6
CONTINUOUS
 62
     7
 10
22.970000000000041
 20
-3.972
 30
0.0
 11
17.029999999999969
 21
-4.6469999999999843
 31
0.0
  0
LINE
  5
5C9
  8
DATA
  6
CONTINUOUS
 62
     7
 10
22.970000000000041
 20
-3.4769999999999959
 30
0.0
 11
17.029999999999969
 21
-4.1519999999999859
 31
0.0
  0
LINE
  5
5CA
  8
DATA
  6
CONTINUOUS
 62
     7
 10
22.970000000000041
 20
-3.4769999999999959
 30
0.0
 11
17.029999999999969
 21
-4.1519999999999859
 31
0.0
  0
LINE
  5
5CB
  8
DATA
  6
CONTINUOUS
 62
     7
 10
22.970000000000041
 20
-1.9919999999999971
 30
0.0
 11
17.029999999999969
 21
-2.6669999999999869
 31
0.0
  0
LINE
  5
5CC
  8
DATA
  6
CONTINUOUS
 62
     7
 10
22.970000000000041
 20
-1.4970000000000001
 30
0.0
 11
17.029999999999969
 21
-2.1719999999999891
 31
0.0
  0
LINE
  5
5CD
  8
DATA
  6
CONTINUOUS
 62
     7
 10
22.970000000000041
 20
-1.4970000000000001
 30
0.0
 11
17.029999999999969
 21
-2.1719999999999891
 31
0.0
  0
LINE
  5
5CE
  8
DATA
  6
CONTINUOUS
 62
     7
 10
22.970000000000041
 20
-0.0120000000000005
 30
0.0
 11
17.029999999999969
 21
-0.6869999999999905
 31
0.0
  0
LINE
  5
5CF
  8
DATA
  6
CONTINUOUS
 62
     7
 10
22.970000000000041
 20
0.4829999999999971
 30
0.0
 11
17.029999999999969
 21
-0.1919999999999931
 31
0.0
  0
LINE
  5
5D0
  8
DATA
  6
CONTINUOUS
 62
     7
 10
22.970000000000041
 20
0.4829999999999971
 30
0.0
 11
17.029999999999969
 21
-0.1919999999999931
 31
0.0
  0
LINE
  5
5D1
  8
DATA
  6
CONTINUOUS
 62
     7
 10
22.970000000000041
 20
1.9679999999999891
 30
0.0
 11
17.029999999999969
 21
1.2930000000000059
 31
0.0
  0
LINE
  5
5D2
  8
DATA
  6
CONTINUOUS
 62
     7
 10
22.970000000000041
 20
2.462999999999993
 30
0.0
 11
17.029999999999969
 21
1.787999999999996
 31
0.0
  0
LINE
  5
5D3
  8
DATA
  6
CONTINUOUS
 62
     7
 10
22.970000000000041
 20
2.462999999999993
 30
0.0
 11
17.029999999999969
 21
1.787999999999996
 31
0.0
  0
LINE
  5
5D4
  8
DATA
  6
CONTINUOUS
 62
     7
 10
22.970000000000041
 20
3.947999999999992
 30
0.0
 11
17.029999999999969
 21
3.2730000000000099
 31
0.0
  0
LINE
  5
5D5
  8
DATA
  6
CONTINUOUS
 62
     7
 10
22.970000000000041
 20
4.442999999999997
 30
0.0
 11
17.029999999999969
 21
3.7679999999999998
 31
0.0
  0
LINE
  5
5D6
  8
DATA
  6
CONTINUOUS
 62
     7
 10
22.970000000000041
 20
4.442999999999997
 30
0.0
 11
17.029999999999969
 21
3.7679999999999998
 31
0.0
  0
LINE
  5
5D7
  8
DATA
  6
CONTINUOUS
 62
     7
 10
22.970000000000041
 20
5.9279999999999964
 30
0.0
 11
17.029999999999969
 21
5.2530000000000001
 31
0.0
  0
LINE
  5
5D8
  8
DATA
  6
CONTINUOUS
 62
     7
 10
22.970000000000041
 20
6.4229999999999867
 30
0.0
 11
17.029999999999969
 21
5.7480000000000038
 31
0.0
  0
LINE
  5
5D9
  8
DATA
  6
CONTINUOUS
 62
     7
 10
22.970000000000041
 20
6.4229999999999867
 30
0.0
 11
17.029999999999969
 21
5.7480000000000038
 31
0.0
  0
LINE
  5
5DA
  8
DATA
  6
CONTINUOUS
 62
     7
 10
22.970000000000041
 20
7.9080000000000013
 30
0.0
 11
17.029999999999969
 21
7.2330000000000032
 31
0.0
  0
LINE
  5
5DB
  8
DATA
  6
CONTINUOUS
 62
     7
 10
22.970000000000041
 20
8.4029999999999898
 30
0.0
 11
17.029999999999969
 21
7.7279999999999927
 31
0.0
  0
LINE
  5
5DC
  8
DATA
  6
CONTINUOUS
 62
     7
 10
22.970000000000041
 20
8.4029999999999898
 30
0.0
 11
17.029999999999969
 21
7.7279999999999927
 31
0.0
  0
LINE
  5
5DD
  8
DATA
  6
CONTINUOUS
 62
     7
 10
22.970000000000041
 20
9.887999999999991
 30
0.0
 11
17.029999999999969
 21
9.2130000000000081
 31
0.0
  0
LINE
  5
5DE
  8
DATA
  6
CONTINUOUS
 62
     7
 10
22.970000000000041
 20
10.38299999999999
 30
0.0
 11
17.029999999999969
 21
9.7079999999999984
 31
0.0
  0
LINE
  5
5DF
  8
DATA
  6
CONTINUOUS
 62
     7
 10
22.970000000000041
 20
10.38299999999999
 30
0.0
 11
17.029999999999969
 21
9.7079999999999984
 31
0.0
  0
LINE
  5
5E0
  8
DATA
  6
CONTINUOUS
 62
     7
 10
22.970000000000041
 20
11.868
 30
0.0
 11
17.029999999999969
 21
11.193
 31
0.0
  0
LINE
  5
5E1
  8
DATA
  6
CONTINUOUS
 62
     7
 10
22.970000000000041
 20
12.362999999999991
 30
0.0
 11
17.029999999999969
 21
11.688000000000001
 31
0.0
  0
LINE
  5
5E2
  8
DATA
  6
CONTINUOUS
 62
     7
 10
22.970000000000041
 20
12.362999999999991
 30
0.0
 11
17.029999999999969
 21
11.688000000000001
 31
0.0
  0
LINE
  5
5E3
  8
DATA
  6
CONTINUOUS
 62
     7
 10
22.970000000000041
 20
13.848000000000001
 30
0.0
 11
17.029999999999969
 21
13.173
 31
0.0
  0
LINE
  5
5E4
  8
DATA
  6
CONTINUOUS
 62
     7
 10
22.970000000000041
 20
14.342999999999989
 30
0.0
 11
17.029999999999969
 21
13.66800000000001
 31
0.0
  0
LINE
  5
5E5
  8
DATA
  6
CONTINUOUS
 62
     7
 10
22.970000000000041
 20
14.342999999999989
 30
0.0
 11
17.029999999999969
 21
13.66800000000001
 31
0.0
  0
LINE
  5
5E6
  8
DATA
  6
CONTINUOUS
 62
     7
 10
22.970000000000041
 20
15.827999999999991
 30
0.0
 11
17.029999999999969
 21
15.153
 31
0.0
  0
LINE
  5
5E7
  8
DATA
  6
CONTINUOUS
 62
     7
 10
22.970000000000041
 20
16.323
 30
0.0
 11
17.029999999999969
 21
15.64800000000001
 31
0.0
  0
LINE
  5
5E8
  8
DATA
  6
CONTINUOUS
 62
     7
 10
22.970000000000041
 20
16.323
 30
0.0
 11
17.029999999999969
 21
15.64800000000001
 31
0.0
  0
LINE
  5
5E9
  8
DATA
  6
CONTINUOUS
 62
     7
 10
22.970000000000041
 20
17.807999999999989
 30
0.0
 11
17.029999999999969
 21
17.132999999999999
 31
0.0
  0
LINE
  5
5EA
  8
DATA
  6
CONTINUOUS
 62
     7
 10
22.970000000000041
 20
18.30299999999999
 30
0.0
 11
17.029999999999969
 21
17.628
 31
0.0
  0
LINE
  5
5EB
  8
DATA
  6
CONTINUOUS
 62
     7
 10
22.970000000000041
 20
18.30299999999999
 30
0.0
 11
17.029999999999969
 21
17.628
 31
0.0
  0
LINE
  5
5EC
  8
DATA
  6
CONTINUOUS
 62
     7
 10
22.970000000000041
 20
19.788
 30
0.0
 11
17.029999999999969
 21
19.113
 31
0.0
  0
LINE
  5
5ED
  8
DATA
  6
CONTINUOUS
 62
     7
 10
22.970000000000041
 20
20.283000000000008
 30
0.0
 11
17.029999999999969
 21
19.608000000000001
 31
0.0
  0
LINE
  5
5EE
  8
DATA
  6
CONTINUOUS
 62
     7
 10
22.970000000000041
 20
20.283000000000008
 30
0.0
 11
17.029999999999969
 21
19.608000000000001
 31
0.0
  0
LINE
  5
5EF
  8
DATA
  6
CONTINUOUS
 62
     7
 10
22.970000000000041
 20
21.76799999999999
 30
0.0
 11
17.029999999999969
 21
21.093000000000011
 31
0.0
  0
LINE
  5
5F0
  8
DATA
  6
CONTINUOUS
 62
     7
 10
22.970000000000041
 20
22.263000000000002
 30
0.0
 11
17.029999999999969
 21
21.588000000000012
 31
0.0
  0
LINE
  5
5F1
  8
DATA
  6
CONTINUOUS
 62
     7
 10
22.970000000000041
 20
22.263000000000002
 30
0.0
 11
17.029999999999969
 21
21.588000000000012
 31
0.0
  0
LINE
  5
5F2
  8
DATA
  6
CONTINUOUS
 62
     7
 10
22.970000000000041
 20
23.748000000000001
 30
0.0
 11
17.029999999999969
 21
23.073000000000011
 31
0.0
  0
LINE
  5
5F3
  8
DATA
  6
CONTINUOUS
 62
     7
 10
22.970000000000041
 20
24.242999999999999
 30
0.0
 11
17.029999999999969
 21
23.568000000000001
 31
0.0
  0
LINE
  5
5F4
  8
DATA
  6
CONTINUOUS
 62
     7
 10
22.970000000000041
 20
24.242999999999999
 30
0.0
 11
17.029999999999969
 21
23.568000000000001
 31
0.0
  0
LINE
  5
5F5
  8
DATA
  6
CONTINUOUS
 62
     7
 10
22.970000000000041
 20
25.728000000000002
 30
0.0
 11
17.029999999999969
 21
25.053000000000019
 31
0.0
  0
LINE
  5
5F6
  8
DATA
  6
CONTINUOUS
 62
     7
 10
22.970000000000041
 20
26.22300000000001
 30
0.0
 11
17.029999999999969
 21
25.54800000000002
 31
0.0
  0
LINE
  5
5F7
  8
DATA
  6
CONTINUOUS
 62
     7
 10
22.970000000000041
 20
26.22300000000001
 30
0.0
 11
17.029999999999969
 21
25.54800000000002
 31
0.0
  0
LINE
  5
5F8
  8
DATA
  6
CONTINUOUS
 62
     7
 10
22.970000000000041
 20
27.707999999999991
 30
0.0
 11
17.029999999999969
 21
27.033000000000008
 31
0.0
  0
LINE
  5
5F9
  8
DATA
  6
CONTINUOUS
 62
     7
 10
22.970000000000041
 20
28.202999999999999
 30
0.0
 11
17.029999999999969
 21
27.528000000000009
 31
0.0
  0
LINE
  5
5FA
  8
DATA
  6
CONTINUOUS
 62
     7
 10
22.970000000000041
 20
28.202999999999999
 30
0.0
 11
17.029999999999969
 21
27.528000000000009
 31
0.0
  0
LINE
  5
5FB
  8
DATA
  6
CONTINUOUS
 62
     7
 10
22.970000000000041
 20
29.688000000000009
 30
0.0
 11
17.029999999999969
 21
29.013000000000009
 31
0.0
  0
LINE
  5
5FC
  8
DATA
  6
CONTINUOUS
 62
     7
 10
22.970000000000041
 20
30.183
 30
0.0
 11
17.029999999999969
 21
29.50800000000001
 31
0.0
  0
LINE
  5
5FD
  8
DATA
  6
CONTINUOUS
 62
     7
 10
22.970000000000041
 20
30.183
 30
0.0
 11
17.029999999999969
 21
29.50800000000001
 31
0.0
  0
LINE
  5
5FE
  8
DATA
  6
CONTINUOUS
 62
     7
 10
22.970000000000041
 20
31.667999999999999
 30
0.0
 11
17.029999999999969
 21
30.993000000000009
 31
0.0
  0
LINE
  5
5FF
  8
DATA
  6
CONTINUOUS
 62
     7
 10
22.970000000000041
 20
32.162999999999997
 30
0.0
 11
17.029999999999969
 21
31.488000000000021
 31
0.0
  0
LINE
  5
600
  8
DATA
  6
CONTINUOUS
 62
     7
 10
22.970000000000041
 20
-5.4569999999999999
 30
0.0
 11
17.029999999999969
 21
-6.1319999999999828
 31
0.0
  0
LINE
  5
601
  8
DATA
  6
CONTINUOUS
 62
     7
 10
22.970000000000041
 20
-3.972
 30
0.0
 11
17.029999999999969
 21
-4.6469999999999843
 31
0.0
  0
LINE
  5
602
  8
DATA
  6
CONTINUOUS
 62
     7
 10
22.970000000000041
 20
-3.4769999999999959
 30
0.0
 11
17.029999999999969
 21
-4.1519999999999859
 31
0.0
  0
LINE
  5
603
  8
DATA
  6
CONTINUOUS
 62
     7
 10
22.970000000000041
 20
-3.4769999999999959
 30
0.0
 11
17.029999999999969
 21
-4.1519999999999859
 31
0.0
  0
LINE
  5
604
  8
DATA
  6
CONTINUOUS
 62
     7
 10
22.970000000000041
 20
-1.9919999999999971
 30
0.0
 11
17.029999999999969
 21
-2.6669999999999869
 31
0.0
  0
LINE
  5
605
  8
DATA
  6
CONTINUOUS
 62
     7
 10
22.970000000000041
 20
-1.4970000000000001
 30
0.0
 11
17.029999999999969
 21
-2.1719999999999891
 31
0.0
  0
LINE
  5
606
  8
DATA
  6
CONTINUOUS
 62
     7
 10
22.970000000000041
 20
-1.4970000000000001
 30
0.0
 11
17.029999999999969
 21
-2.1719999999999891
 31
0.0
  0
LINE
  5
607
  8
DATA
  6
CONTINUOUS
 62
     7
 10
22.970000000000041
 20
-0.0120000000000005
 30
0.0
 11
17.029999999999969
 21
-0.6869999999999905
 31
0.0
  0
LINE
  5
608
  8
DATA
  6
CONTINUOUS
 62
     7
 10
22.970000000000041
 20
0.4829999999999971
 30
0.0
 11
17.029999999999969
 21
-0.1919999999999931
 31
0.0
  0
LINE
  5
609
  8
DATA
  6
CONTINUOUS
 62
     7
 10
22.970000000000041
 20
0.4829999999999971
 30
0.0
 11
17.029999999999969
 21
-0.1919999999999931
 31
0.0
  0
LINE
  5
60A
  8
DATA
  6
CONTINUOUS
 62
     7
 10
22.970000000000041
 20
1.9679999999999891
 30
0.0
 11
17.029999999999969
 21
1.2930000000000059
 31
0.0
  0
LINE
  5
60B
  8
DATA
  6
CONTINUOUS
 62
     7
 10
22.970000000000041
 20
2.462999999999993
 30
0.0
 11
17.029999999999969
 21
1.787999999999996
 31
0.0
  0
LINE
  5
60C
  8
DATA
  6
CONTINUOUS
 62
     7
 10
22.970000000000041
 20
2.462999999999993
 30
0.0
 11
17.029999999999969
 21
1.787999999999996
 31
0.0
  0
LINE
  5
60D
  8
DATA
  6
CONTINUOUS
 62
     7
 10
22.970000000000041
 20
3.947999999999992
 30
0.0
 11
17.029999999999969
 21
3.2730000000000099
 31
0.0
  0
LINE
  5
60E
  8
DATA
  6
CONTINUOUS
 62
     7
 10
22.970000000000041
 20
4.442999999999997
 30
0.0
 11
17.029999999999969
 21
3.7679999999999998
 31
0.0
  0
LINE
  5
60F
  8
DATA
  6
CONTINUOUS
 62
     7
 10
22.970000000000041
 20
4.442999999999997
 30
0.0
 11
17.029999999999969
 21
3.7679999999999998
 31
0.0
  0
LINE
  5
610
  8
DATA
  6
CONTINUOUS
 62
     7
 10
22.970000000000041
 20
5.9279999999999964
 30
0.0
 11
17.029999999999969
 21
5.2530000000000001
 31
0.0
  0
LINE
  5
611
  8
DATA
  6
CONTINUOUS
 62
     7
 10
22.970000000000041
 20
6.4229999999999867
 30
0.0
 11
17.029999999999969
 21
5.7480000000000038
 31
0.0
  0
LINE
  5
612
  8
DATA
  6
CONTINUOUS
 62
     7
 10
22.970000000000041
 20
6.4229999999999867
 30
0.0
 11
17.029999999999969
 21
5.7480000000000038
 31
0.0
  0
LINE
  5
613
  8
DATA
  6
CONTINUOUS
 62
     7
 10
22.970000000000041
 20
7.9080000000000013
 30
0.0
 11
17.029999999999969
 21
7.2330000000000032
 31
0.0
  0
LINE
  5
614
  8
DATA
  6
CONTINUOUS
 62
     7
 10
22.970000000000041
 20
8.4029999999999898
 30
0.0
 11
17.029999999999969
 21
7.7279999999999927
 31
0.0
  0
LINE
  5
615
  8
DATA
  6
CONTINUOUS
 62
     7
 10
22.970000000000041
 20
8.4029999999999898
 30
0.0
 11
17.029999999999969
 21
7.7279999999999927
 31
0.0
  0
LINE
  5
616
  8
DATA
  6
CONTINUOUS
 62
     7
 10
22.970000000000041
 20
9.887999999999991
 30
0.0
 11
17.029999999999969
 21
9.2130000000000081
 31
0.0
  0
LINE
  5
617
  8
DATA
  6
CONTINUOUS
 62
     7
 10
22.970000000000041
 20
10.38299999999999
 30
0.0
 11
17.029999999999969
 21
9.7079999999999984
 31
0.0
  0
LINE
  5
618
  8
DATA
  6
CONTINUOUS
 62
     7
 10
22.970000000000041
 20
10.38299999999999
 30
0.0
 11
17.029999999999969
 21
9.7079999999999984
 31
0.0
  0
LINE
  5
619
  8
DATA
  6
CONTINUOUS
 62
     7
 10
22.970000000000041
 20
11.868
 30
0.0
 11
17.029999999999969
 21
11.193
 31
0.0
  0
LINE
  5
61A
  8
DATA
  6
CONTINUOUS
 62
     7
 10
22.970000000000041
 20
12.362999999999991
 30
0.0
 11
17.029999999999969
 21
11.688000000000001
 31
0.0
  0
LINE
  5
61B
  8
DATA
  6
CONTINUOUS
 62
     7
 10
22.970000000000041
 20
12.362999999999991
 30
0.0
 11
17.029999999999969
 21
11.688000000000001
 31
0.0
  0
LINE
  5
61C
  8
DATA
  6
CONTINUOUS
 62
     7
 10
22.970000000000041
 20
13.848000000000001
 30
0.0
 11
17.029999999999969
 21
13.173
 31
0.0
  0
LINE
  5
61D
  8
DATA
  6
CONTINUOUS
 62
     7
 10
22.970000000000041
 20
14.342999999999989
 30
0.0
 11
17.029999999999969
 21
13.66800000000001
 31
0.0
  0
LINE
  5
61E
  8
DATA
  6
CONTINUOUS
 62
     7
 10
22.970000000000041
 20
14.342999999999989
 30
0.0
 11
17.029999999999969
 21
13.66800000000001
 31
0.0
  0
LINE
  5
61F
  8
DATA
  6
CONTINUOUS
 62
     7
 10
22.970000000000041
 20
15.827999999999991
 30
0.0
 11
17.029999999999969
 21
15.153
 31
0.0
  0
LINE
  5
620
  8
DATA
  6
CONTINUOUS
 62
     7
 10
22.970000000000041
 20
16.323
 30
0.0
 11
17.029999999999969
 21
15.64800000000001
 31
0.0
  0
LINE
  5
621
  8
DATA
  6
CONTINUOUS
 62
     7
 10
22.970000000000041
 20
16.323
 30
0.0
 11
17.029999999999969
 21
15.64800000000001
 31
0.0
  0
LINE
  5
622
  8
DATA
  6
CONTINUOUS
 62
     7
 10
22.970000000000041
 20
17.807999999999989
 30
0.0
 11
17.029999999999969
 21
17.132999999999999
 31
0.0
  0
LINE
  5
623
  8
DATA
  6
CONTINUOUS
 62
     7
 10
22.970000000000041
 20
18.30299999999999
 30
0.0
 11
17.029999999999969
 21
17.628
 31
0.0
  0
LINE
  5
624
  8
DATA
  6
CONTINUOUS
 62
     7
 10
22.970000000000041
 20
18.30299999999999
 30
0.0
 11
17.029999999999969
 21
17.628
 31
0.0
  0
LINE
  5
625
  8
DATA
  6
CONTINUOUS
 62
     7
 10
22.970000000000041
 20
19.788
 30
0.0
 11
17.029999999999969
 21
19.113
 31
0.0
  0
LINE
  5
626
  8
DATA
  6
CONTINUOUS
 62
     7
 10
22.970000000000041
 20
20.283000000000008
 30
0.0
 11
17.029999999999969
 21
19.608000000000001
 31
0.0
  0
LINE
  5
627
  8
DATA
  6
CONTINUOUS
 62
     7
 10
22.970000000000041
 20
20.283000000000008
 30
0.0
 11
17.029999999999969
 21
19.608000000000001
 31
0.0
  0
LINE
  5
628
  8
DATA
  6
CONTINUOUS
 62
     7
 10
22.970000000000041
 20
21.76799999999999
 30
0.0
 11
17.029999999999969
 21
21.093000000000011
 31
0.0
  0
LINE
  5
629
  8
DATA
  6
CONTINUOUS
 62
     7
 10
22.970000000000041
 20
22.263000000000002
 30
0.0
 11
17.029999999999969
 21
21.588000000000012
 31
0.0
  0
LINE
  5
62A
  8
DATA
  6
CONTINUOUS
 62
     7
 10
22.970000000000041
 20
22.263000000000002
 30
0.0
 11
17.029999999999969
 21
21.588000000000012
 31
0.0
  0
LINE
  5
62B
  8
DATA
  6
CONTINUOUS
 62
     7
 10
22.970000000000041
 20
23.748000000000001
 30
0.0
 11
17.029999999999969
 21
23.073000000000011
 31
0.0
  0
LINE
  5
62C
  8
DATA
  6
CONTINUOUS
 62
     7
 10
22.970000000000041
 20
24.242999999999999
 30
0.0
 11
17.029999999999969
 21
23.568000000000001
 31
0.0
  0
LINE
  5
62D
  8
DATA
  6
CONTINUOUS
 62
     7
 10
22.970000000000041
 20
24.242999999999999
 30
0.0
 11
17.029999999999969
 21
23.568000000000001
 31
0.0
  0
LINE
  5
62E
  8
DATA
  6
CONTINUOUS
 62
     7
 10
22.970000000000041
 20
25.728000000000002
 30
0.0
 11
17.029999999999969
 21
25.053000000000019
 31
0.0
  0
LINE
  5
62F
  8
DATA
  6
CONTINUOUS
 62
     7
 10
22.970000000000041
 20
26.22300000000001
 30
0.0
 11
17.029999999999969
 21
25.54800000000002
 31
0.0
  0
LINE
  5
630
  8
DATA
  6
CONTINUOUS
 62
     7
 10
22.970000000000041
 20
26.22300000000001
 30
0.0
 11
17.029999999999969
 21
25.54800000000002
 31
0.0
  0
LINE
  5
631
  8
DATA
  6
CONTINUOUS
 62
     7
 10
22.970000000000041
 20
27.707999999999991
 30
0.0
 11
17.029999999999969
 21
27.033000000000008
 31
0.0
  0
LINE
  5
632
  8
DATA
  6
CONTINUOUS
 62
     7
 10
22.970000000000041
 20
28.202999999999999
 30
0.0
 11
17.029999999999969
 21
27.528000000000009
 31
0.0
  0
LINE
  5
633
  8
DATA
  6
CONTINUOUS
 62
     7
 10
22.970000000000041
 20
28.202999999999999
 30
0.0
 11
17.029999999999969
 21
27.528000000000009
 31
0.0
  0
LINE
  5
634
  8
DATA
  6
CONTINUOUS
 62
     7
 10
22.970000000000041
 20
29.688000000000009
 30
0.0
 11
17.029999999999969
 21
29.013000000000009
 31
0.0
  0
LINE
  5
635
  8
DATA
  6
CONTINUOUS
 62
     7
 10
22.970000000000041
 20
30.183
 30
0.0
 11
17.029999999999969
 21
29.50800000000001
 31
0.0
  0
LINE
  5
636
  8
DATA
  6
CONTINUOUS
 62
     7
 10
22.970000000000041
 20
30.183
 30
0.0
 11
17.029999999999969
 21
29.50800000000001
 31
0.0
  0
LINE
  5
637
  8
DATA
  6
CONTINUOUS
 62
     7
 10
22.970000000000041
 20
31.667999999999999
 30
0.0
 11
17.029999999999969
 21
30.993000000000009
 31
0.0
  0
LINE
  5
638
  8
DATA
  6
CONTINUOUS
 62
     7
 10
22.970000000000041
 20
32.162999999999997
 30
0.0
 11
17.029999999999969
 21
31.488000000000021
 31
0.0
  0
LINE
  5
639
  8
DATA
  6
CONTINUOUS
 62
     7
 10
22.970000000000041
 20
32.162999999999997
 30
0.0
 11
17.029999999999969
 21
31.488000000000021
 31
0.0
  0
LINE
  5
63A
  8
DATA
  6
CONTINUOUS
 62
     7
 10
22.970000000000041
 20
33.64800000000001
 30
0.0
 11
17.029999999999969
 21
32.973000000000013
 31
0.0
  0
LINE
  5
63B
  8
DATA
  6
CONTINUOUS
 62
     7
 10
22.970000000000041
 20
34.142999999999986
 30
0.0
 11
17.029999999999969
 21
33.468000000000011
 31
0.0
  0
LINE
  5
63C
  8
DATA
  6
CONTINUOUS
 62
     7
 10
22.970000000000041
 20
-3.4769999999999959
 30
0.0
 11
17.029999999999969
 21
-4.1519999999999859
 31
0.0
  0
LINE
  5
63D
  8
DATA
  6
CONTINUOUS
 62
     7
 10
22.970000000000041
 20
-1.9919999999999971
 30
0.0
 11
17.029999999999969
 21
-2.6669999999999869
 31
0.0
  0
LINE
  5
63E
  8
DATA
  6
CONTINUOUS
 62
     7
 10
22.970000000000041
 20
-1.4970000000000001
 30
0.0
 11
17.029999999999969
 21
-2.1719999999999891
 31
0.0
  0
LINE
  5
63F
  8
DATA
  6
CONTINUOUS
 62
     7
 10
22.970000000000041
 20
-1.4970000000000001
 30
0.0
 11
17.029999999999969
 21
-2.1719999999999891
 31
0.0
  0
LINE
  5
640
  8
DATA
  6
CONTINUOUS
 62
     7
 10
22.970000000000041
 20
-0.0120000000000005
 30
0.0
 11
17.029999999999969
 21
-0.6869999999999905
 31
0.0
  0
LINE
  5
641
  8
DATA
  6
CONTINUOUS
 62
     7
 10
22.970000000000041
 20
0.4829999999999971
 30
0.0
 11
17.029999999999969
 21
-0.1919999999999931
 31
0.0
  0
LINE
  5
642
  8
DATA
  6
CONTINUOUS
 62
     7
 10
22.970000000000041
 20
0.4829999999999971
 30
0.0
 11
17.029999999999969
 21
-0.1919999999999931
 31
0.0
  0
LINE
  5
643
  8
DATA
  6
CONTINUOUS
 62
     7
 10
22.970000000000041
 20
1.9679999999999891
 30
0.0
 11
17.029999999999969
 21
1.2930000000000059
 31
0.0
  0
LINE
  5
644
  8
DATA
  6
CONTINUOUS
 62
     7
 10
22.970000000000041
 20
2.462999999999993
 30
0.0
 11
17.029999999999969
 21
1.787999999999996
 31
0.0
  0
LINE
  5
645
  8
DATA
  6
CONTINUOUS
 62
     7
 10
22.970000000000041
 20
2.462999999999993
 30
0.0
 11
17.029999999999969
 21
1.787999999999996
 31
0.0
  0
LINE
  5
646
  8
DATA
  6
CONTINUOUS
 62
     7
 10
22.970000000000041
 20
3.947999999999992
 30
0.0
 11
17.029999999999969
 21
3.2730000000000099
 31
0.0
  0
LINE
  5
647
  8
DATA
  6
CONTINUOUS
 62
     7
 10
22.970000000000041
 20
4.442999999999997
 30
0.0
 11
17.029999999999969
 21
3.7679999999999998
 31
0.0
  0
LINE
  5
648
  8
DATA
  6
CONTINUOUS
 62
     7
 10
22.970000000000041
 20
4.442999999999997
 30
0.0
 11
17.029999999999969
 21
3.7679999999999998
 31
0.0
  0
LINE
  5
649
  8
DATA
  6
CONTINUOUS
 62
     7
 10
22.970000000000041
 20
5.9279999999999964
 30
0.0
 11
17.029999999999969
 21
5.2530000000000001
 31
0.0
  0
LINE
  5
64A
  8
DATA
  6
CONTINUOUS
 62
     7
 10
22.970000000000041
 20
6.4229999999999867
 30
0.0
 11
17.029999999999969
 21
5.7480000000000038
 31
0.0
  0
LINE
  5
64B
  8
DATA
  6
CONTINUOUS
 62
     7
 10
22.970000000000041
 20
6.4229999999999867
 30
0.0
 11
17.029999999999969
 21
5.7480000000000038
 31
0.0
  0
LINE
  5
64C
  8
DATA
  6
CONTINUOUS
 62
     7
 10
22.970000000000041
 20
7.9080000000000013
 30
0.0
 11
17.029999999999969
 21
7.2330000000000032
 31
0.0
  0
LINE
  5
64D
  8
DATA
  6
CONTINUOUS
 62
     7
 10
22.970000000000041
 20
8.4029999999999898
 30
0.0
 11
17.029999999999969
 21
7.7279999999999927
 31
0.0
  0
LINE
  5
64E
  8
DATA
  6
CONTINUOUS
 62
     7
 10
22.970000000000041
 20
8.4029999999999898
 30
0.0
 11
17.029999999999969
 21
7.7279999999999927
 31
0.0
  0
LINE
  5
64F
  8
DATA
  6
CONTINUOUS
 62
     7
 10
22.970000000000041
 20
9.887999999999991
 30
0.0
 11
17.029999999999969
 21
9.2130000000000081
 31
0.0
  0
LINE
  5
650
  8
DATA
  6
CONTINUOUS
 62
     7
 10
22.970000000000041
 20
10.38299999999999
 30
0.0
 11
17.029999999999969
 21
9.7079999999999984
 31
0.0
  0
LINE
  5
651
  8
DATA
  6
CONTINUOUS
 62
     7
 10
22.970000000000041
 20
10.38299999999999
 30
0.0
 11
17.029999999999969
 21
9.7079999999999984
 31
0.0
  0
LINE
  5
652
  8
DATA
  6
CONTINUOUS
 62
     7
 10
22.970000000000041
 20
11.868
 30
0.0
 11
17.029999999999969
 21
11.193
 31
0.0
  0
LINE
  5
653
  8
DATA
  6
CONTINUOUS
 62
     7
 10
22.970000000000041
 20
12.362999999999991
 30
0.0
 11
17.029999999999969
 21
11.688000000000001
 31
0.0
  0
LINE
  5
654
  8
DATA
  6
CONTINUOUS
 62
     7
 10
22.970000000000041
 20
12.362999999999991
 30
0.0
 11
17.029999999999969
 21
11.688000000000001
 31
0.0
  0
LINE
  5
655
  8
DATA
  6
CONTINUOUS
 62
     7
 10
22.970000000000041
 20
13.848000000000001
 30
0.0
 11
17.029999999999969
 21
13.173
 31
0.0
  0
LINE
  5
656
  8
DATA
  6
CONTINUOUS
 62
     7
 10
22.970000000000041
 20
14.342999999999989
 30
0.0
 11
17.029999999999969
 21
13.66800000000001
 31
0.0
  0
LINE
  5
657
  8
DATA
  6
CONTINUOUS
 62
     7
 10
22.970000000000041
 20
14.342999999999989
 30
0.0
 11
17.029999999999969
 21
13.66800000000001
 31
0.0
  0
LINE
  5
658
  8
DATA
  6
CONTINUOUS
 62
     7
 10
22.970000000000041
 20
15.827999999999991
 30
0.0
 11
17.029999999999969
 21
15.153
 31
0.0
  0
LINE
  5
659
  8
DATA
  6
CONTINUOUS
 62
     7
 10
22.970000000000041
 20
16.323
 30
0.0
 11
17.029999999999969
 21
15.64800000000001
 31
0.0
  0
LINE
  5
65A
  8
DATA
  6
CONTINUOUS
 62
     7
 10
22.970000000000041
 20
16.323
 30
0.0
 11
17.029999999999969
 21
15.64800000000001
 31
0.0
  0
LINE
  5
65B
  8
DATA
  6
CONTINUOUS
 62
     7
 10
22.970000000000041
 20
17.807999999999989
 30
0.0
 11
17.029999999999969
 21
17.132999999999999
 31
0.0
  0
LINE
  5
65C
  8
DATA
  6
CONTINUOUS
 62
     7
 10
22.970000000000041
 20
18.30299999999999
 30
0.0
 11
17.029999999999969
 21
17.628
 31
0.0
  0
LINE
  5
65D
  8
DATA
  6
CONTINUOUS
 62
     7
 10
22.970000000000041
 20
18.30299999999999
 30
0.0
 11
17.029999999999969
 21
17.628
 31
0.0
  0
LINE
  5
65E
  8
DATA
  6
CONTINUOUS
 62
     7
 10
22.970000000000041
 20
19.788
 30
0.0
 11
17.029999999999969
 21
19.113
 31
0.0
  0
LINE
  5
65F
  8
DATA
  6
CONTINUOUS
 62
     7
 10
22.970000000000041
 20
20.283000000000008
 30
0.0
 11
17.029999999999969
 21
19.608000000000001
 31
0.0
  0
LINE
  5
660
  8
DATA
  6
CONTINUOUS
 62
     7
 10
22.970000000000041
 20
20.283000000000008
 30
0.0
 11
17.029999999999969
 21
19.608000000000001
 31
0.0
  0
LINE
  5
661
  8
DATA
  6
CONTINUOUS
 62
     7
 10
22.970000000000041
 20
21.76799999999999
 30
0.0
 11
17.029999999999969
 21
21.093000000000011
 31
0.0
  0
LINE
  5
662
  8
DATA
  6
CONTINUOUS
 62
     7
 10
22.970000000000041
 20
22.263000000000002
 30
0.0
 11
17.029999999999969
 21
21.588000000000012
 31
0.0
  0
LINE
  5
663
  8
DATA
  6
CONTINUOUS
 62
     7
 10
22.970000000000041
 20
22.263000000000002
 30
0.0
 11
17.029999999999969
 21
21.588000000000012
 31
0.0
  0
LINE
  5
664
  8
DATA
  6
CONTINUOUS
 62
     7
 10
22.970000000000041
 20
23.748000000000001
 30
0.0
 11
17.029999999999969
 21
23.073000000000011
 31
0.0
  0
LINE
  5
665
  8
DATA
  6
CONTINUOUS
 62
     7
 10
22.970000000000041
 20
24.242999999999999
 30
0.0
 11
17.029999999999969
 21
23.568000000000001
 31
0.0
  0
LINE
  5
666
  8
DATA
  6
CONTINUOUS
 62
     7
 10
22.970000000000041
 20
24.242999999999999
 30
0.0
 11
17.029999999999969
 21
23.568000000000001
 31
0.0
  0
LINE
  5
667
  8
DATA
  6
CONTINUOUS
 62
     7
 10
22.970000000000041
 20
25.728000000000002
 30
0.0
 11
17.029999999999969
 21
25.053000000000019
 31
0.0
  0
LINE
  5
668
  8
DATA
  6
CONTINUOUS
 62
     7
 10
22.970000000000041
 20
26.22300000000001
 30
0.0
 11
17.029999999999969
 21
25.54800000000002
 31
0.0
  0
LINE
  5
669
  8
DATA
  6
CONTINUOUS
 62
     7
 10
22.970000000000041
 20
26.22300000000001
 30
0.0
 11
17.029999999999969
 21
25.54800000000002
 31
0.0
  0
LINE
  5
66A
  8
DATA
  6
CONTINUOUS
 62
     7
 10
22.970000000000041
 20
27.707999999999991
 30
0.0
 11
17.029999999999969
 21
27.033000000000008
 31
0.0
  0
LINE
  5
66B
  8
DATA
  6
CONTINUOUS
 62
     7
 10
22.970000000000041
 20
28.202999999999999
 30
0.0
 11
17.029999999999969
 21
27.528000000000009
 31
0.0
  0
LINE
  5
66C
  8
DATA
  6
CONTINUOUS
 62
     7
 10
22.970000000000041
 20
28.202999999999999
 30
0.0
 11
17.029999999999969
 21
27.528000000000009
 31
0.0
  0
LINE
  5
66D
  8
DATA
  6
CONTINUOUS
 62
     7
 10
22.970000000000041
 20
29.688000000000009
 30
0.0
 11
17.029999999999969
 21
29.013000000000009
 31
0.0
  0
LINE
  5
66E
  8
DATA
  6
CONTINUOUS
 62
     7
 10
22.970000000000041
 20
30.183
 30
0.0
 11
17.029999999999969
 21
29.50800000000001
 31
0.0
  0
LINE
  5
66F
  8
DATA
  6
CONTINUOUS
 62
     7
 10
22.970000000000041
 20
30.183
 30
0.0
 11
17.029999999999969
 21
29.50800000000001
 31
0.0
  0
LINE
  5
670
  8
DATA
  6
CONTINUOUS
 62
     7
 10
22.970000000000041
 20
31.667999999999999
 30
0.0
 11
17.029999999999969
 21
30.993000000000009
 31
0.0
  0
LINE
  5
671
  8
DATA
  6
CONTINUOUS
 62
     7
 10
22.970000000000041
 20
32.162999999999997
 30
0.0
 11
17.029999999999969
 21
31.488000000000021
 31
0.0
  0
LINE
  5
672
  8
DATA
  6
CONTINUOUS
 62
     7
 10
22.970000000000041
 20
32.162999999999997
 30
0.0
 11
17.029999999999969
 21
31.488000000000021
 31
0.0
  0
LINE
  5
673
  8
DATA
  6
CONTINUOUS
 62
     7
 10
22.970000000000041
 20
33.64800000000001
 30
0.0
 11
17.029999999999969
 21
32.973000000000013
 31
0.0
  0
LINE
  5
674
  8
DATA
  6
CONTINUOUS
 62
     7
 10
22.970000000000041
 20
34.142999999999986
 30
0.0
 11
17.029999999999969
 21
33.468000000000011
 31
0.0
  0
LINE
  5
675
  8
DATA
  6
CONTINUOUS
 62
     7
 10
22.970000000000041
 20
34.142999999999986
 30
0.0
 11
17.029999999999969
 21
33.468000000000011
 31
0.0
  0
LINE
  5
676
  8
DATA
  6
CONTINUOUS
 62
     7
 10
22.970000000000041
 20
35.628000000000007
 30
0.0
 11
17.029999999999969
 21
34.953000000000017
 31
0.0
  0
LINE
  5
677
  8
DATA
  6
CONTINUOUS
 62
     7
 10
22.970000000000041
 20
36.123000000000012
 30
0.0
 11
17.029999999999969
 21
35.448000000000008
 31
0.0
  0
LINE
  5
678
  8
DATA
  6
CONTINUOUS
 62
     7
 10
22.970000000000041
 20
37.623000000000012
 30
0.0
 11
17.029999999999969
 21
36.948000000000022
 31
0.0
  0
LINE
  5
679
  8
DATA
  6
CONTINUOUS
 62
     7
 10
21.03399999999997
 20
37.90300000000002
 30
0.0
 11
17.029999999999969
 21
37.448000000000008
 31
0.0
  0
LINE
  5
67A
  8
DATA
  6
CONTINUOUS
 62
     7
 10
-53.749999999999972
 20
37.90300000000002
 30
0.0
 11
-46.249999999999972
 21
37.90300000000002
 31
0.0
  0
LINE
  5
67B
  8
DATA
  6
CONTINUOUS
 62
     7
 10
-53.749999999999972
 20
37.90300000000002
 30
0.0
 11
-53.749999999999972
 21
41.368000000000002
 31
0.0
  0
LINE
  5
67C
  8
DATA
  6
CONTINUOUS
 62
     7
 10
-45.450000000000003
 20
53.899999999999991
 30
0.0
 11
-46.249999999999972
 21
41.368000000000002
 31
0.0
  0
LINE
  5
67D
  8
DATA
  6
CONTINUOUS
 62
     7
 10
-54.549999999999997
 20
53.899999999999991
 30
0.0
 11
-53.749999999999972
 21
41.368000000000002
 31
0.0
  0
LINE
  5
67E
  8
DATA
  6
CONTINUOUS
 62
     7
 10
-45.899999999999977
 20
63.199999999999989
 30
0.0
 11
-54.100000000000009
 21
63.199999999999989
 31
0.0
  0
LINE
  5
67F
  8
DATA
  6
CONTINUOUS
 62
     7
 10
-54.200000000000003
 20
63.199999999999989
 30
0.0
 11
-45.799999999999997
 21
63.199999999999989
 31
0.0
  0
LINE
  5
680
  8
DATA
  6
CONTINUOUS
 62
     7
 10
-54.200000000000003
 20
63.199999999999989
 30
0.0
 11
-54.200000000000003
 21
58.899999999999991
 31
0.0
  0
LINE
  5
681
  8
DATA
  6
CONTINUOUS
 62
     7
 10
-45.799999999999997
 20
63.199999999999989
 30
0.0
 11
-45.799999999999997
 21
58.899999999999991
 31
0.0
  0
LINE
  5
682
  8
DATA
  6
CONTINUOUS
 62
     7
 10
-54.200000000000003
 20
59.79999999999999
 30
0.0
 11
-45.799999999999997
 21
60.415297182098008
 31
0.0
  0
LINE
  5
683
  8
DATA
  6
CONTINUOUS
 62
     7
 10
-54.200000000000003
 20
59.399999999999991
 30
0.0
 11
-45.799999999999997
 21
60.015297182098017
 31
0.0
  0
LINE
  5
684
  8
DATA
  6
CONTINUOUS
 62
     7
 10
24.550000000000001
 20
53.899999999999991
 30
0.0
 11
23.75
 21
41.368000000000002
 31
0.0
  0
LINE
  5
685
  8
DATA
  6
CONTINUOUS
 62
     7
 10
15.449999999999999
 20
53.899999999999991
 30
0.0
 11
16.25
 21
41.368000000000002
 31
0.0
  0
LINE
  5
686
  8
DATA
  6
CONTINUOUS
 62
     7
 10
-45.450000000000003
 20
58.899999999999991
 30
0.0
 11
-54.549999999999997
 21
58.899999999999991
 31
0.0
  0
LINE
  5
687
  8
DATA
  6
CONTINUOUS
 62
     7
 10
-50.75
 20
56.399999999999991
 30
0.0
 11
-49.25
 21
56.399999999999991
 31
0.0
  0
LINE
  5
688
  8
DATA
  6
CONTINUOUS
 62
     7
 10
-50.75
 20
53.899999999999991
 30
0.0
 11
-49.25
 21
53.899999999999991
 31
0.0
  0
ARC
  5
689
  8
DATA
  6
CONTINUOUS
 62
     7
 10
-50.75
 20
55.149999999999991
 30
0.0
 40
1.25
 50
90.0
 51
270.0
  0
ARC
  5
68A
  8
DATA
  6
CONTINUOUS
 62
     7
 10
-49.25
 20
55.149999999999991
 30
0.0
 40
1.25
 50
270.0
 51
90.0
  0
LINE
  5
68B
  8
DATA
  6
CONTINUOUS
 62
     7
 10
24.550000000000001
 20
58.899999999999991
 30
0.0
 11
15.449999999999999
 21
58.899999999999991
 31
0.0
  0
LINE
  5
68C
  8
DATA
  6
CONTINUOUS
 62
     7
 10
-45.450000000000003
 20
58.899999999999991
 30
0.0
 11
-45.450000000000003
 21
53.899999999999991
 31
0.0
  0
ARC
  5
68D
  8
DATA
  6
CONTINUOUS
 62
     7
 10
-45.450000000000003
 20
55.149999999999991
 30
0.0
 40
1.25
 50
90.0
 51
270.0
  0
LINE
  5
68E
  8
DATA
  6
CONTINUOUS
 62
     7
 10
-54.549999999999997
 20
58.899999999999991
 30
0.0
 11
-54.549999999999997
 21
53.899999999999991
 31
0.0
  0
ARC
  5
68F
  8
DATA
  6
CONTINUOUS
 62
     7
 10
-54.549999999999997
 20
55.149999999999991
 30
0.0
 40
1.25
 50
270.0
 51
90.0
  0
LINE
  5
690
  8
DATA
  6
CONTINUOUS
 62
     7
 10
19.25
 20
56.399999999999991
 30
0.0
 11
20.75
 21
56.399999999999991
 31
0.0
  0
LINE
  5
691
  8
DATA
  6
CONTINUOUS
 62
     7
 10
19.25
 20
53.899999999999991
 30
0.0
 11
20.75
 21
53.899999999999991
 31
0.0
  0
ARC
  5
692
  8
DATA
  6
CONTINUOUS
 62
     7
 10
19.25
 20
55.149999999999991
 30
0.0
 40
1.25
 50
90.0
 51
270.0
  0
ARC
  5
693
  8
DATA
  6
CONTINUOUS
 62
     7
 10
20.75
 20
55.149999999999991
 30
0.0
 40
1.25
 50
270.0
 51
90.0
  0
LINE
  5
694
  8
DATA
  6
CONTINUOUS
 62
     7
 10
24.550000000000001
 20
58.899999999999991
 30
0.0
 11
24.550000000000001
 21
53.899999999999991
 31
0.0
  0
ARC
  5
695
  8
DATA
  6
CONTINUOUS
 62
     7
 10
24.550000000000001
 20
55.149999999999991
 30
0.0
 40
1.25
 50
90.0
 51
270.0
  0
LINE
  5
696
  8
DATA
  6
CONTINUOUS
 62
     7
 10
15.449999999999999
 20
58.899999999999991
 30
0.0
 11
15.449999999999999
 21
53.899999999999991
 31
0.0
  0
ARC
  5
697
  8
DATA
  6
CONTINUOUS
 62
     7
 10
15.449999999999999
 20
55.149999999999991
 30
0.0
 40
1.25
 50
270.0
 51
90.0
  0
LINE
  5
698
  8
DATA
  6
CONTINUOUS
 62
     7
 10
-45.799999999999997
 20
59.399999999999991
 30
0.0
 11
-54.200000000000003
 21
59.399999999999991
 31
0.0
  0
LINE
  5
699
  8
DATA
  6
CONTINUOUS
 62
     7
 10
-54.200000000000003
 20
60.199999999999989
 30
0.0
 11
-45.799999999999997
 21
60.815297182098
 31
0.0
  0
LINE
  5
69A
  8
DATA
  6
CONTINUOUS
 62
     7
 10
-54.200000000000003
 20
60.59999999999998
 30
0.0
 11
-45.799999999999997
 21
61.215297182097999
 31
0.0
  0
LINE
  5
69B
  8
DATA
  6
CONTINUOUS
 62
     7
 10
-54.200000000000003
 20
60.999999999999993
 30
0.0
 11
-45.799999999999997
 21
61.61529718209799
 31
0.0
  0
LINE
  5
69C
  8
DATA
  6
CONTINUOUS
 62
     7
 10
-54.200000000000003
 20
61.399999999999977
 30
0.0
 11
-45.799999999999997
 21
62.015297182097989
 31
0.0
  0
LINE
  5
69D
  8
DATA
  6
CONTINUOUS
 62
     7
 10
-54.200000000000003
 20
61.799999999999983
 30
0.0
 11
-45.799999999999997
 21
62.415297182098001
 31
0.0
  0
LINE
  5
69E
  8
DATA
  6
CONTINUOUS
 62
     7
 10
-54.200000000000003
 20
62.199999999999982
 30
0.0
 11
-45.799999999999997
 21
62.815297182097993
 31
0.0
  0
LINE
  5
69F
  8
DATA
  6
CONTINUOUS
 62
     7
 10
-54.200000000000003
 20
62.59999999999998
 30
0.0
 11
-46.008836206896127
 21
63.199999999999989
 31
0.0
  0
LINE
  5
6A0
  8
DATA
  6
CONTINUOUS
 62
     7
 10
-54.200000000000003
 20
62.999999999999993
 30
0.0
 11
-51.469612068965432
 21
63.199999999999989
 31
0.0
  0
LINE
  5
6A1
  8
DATA
  6
CONTINUOUS
 62
     7
 10
24.100000000000019
 20
63.199999999999989
 30
0.0
 11
15.89999999999997
 21
63.199999999999989
 31
0.0
  0
LINE
  5
6A2
  8
DATA
  6
CONTINUOUS
 62
     7
 10
15.800000000000001
 20
63.199999999999989
 30
0.0
 11
24.20000000000001
 21
63.199999999999989
 31
0.0
  0
LINE
  5
6A3
  8
DATA
  6
CONTINUOUS
 62
     7
 10
15.800000000000001
 20
63.199999999999989
 30
0.0
 11
15.800000000000001
 21
58.899999999999991
 31
0.0
  0
LINE
  5
6A4
  8
DATA
  6
CONTINUOUS
 62
     7
 10
24.20000000000001
 20
63.199999999999989
 30
0.0
 11
24.20000000000001
 21
58.899999999999991
 31
0.0
  0
LINE
  5
6A5
  8
DATA
  6
CONTINUOUS
 62
     7
 10
15.800000000000001
 20
59.79999999999999
 30
0.0
 11
24.20000000000001
 21
60.415297182098008
 31
0.0
  0
LINE
  5
6A6
  8
DATA
  6
CONTINUOUS
 62
     7
 10
15.800000000000001
 20
59.399999999999991
 30
0.0
 11
24.20000000000001
 21
60.015297182098017
 31
0.0
  0
LINE
  5
6A7
  8
DATA
  6
CONTINUOUS
 62
     7
 10
24.20000000000001
 20
59.399999999999991
 30
0.0
 11
15.800000000000001
 21
59.399999999999991
 31
0.0
  0
LINE
  5
6A8
  8
DATA
  6
CONTINUOUS
 62
     7
 10
15.800000000000001
 20
60.199999999999989
 30
0.0
 11
24.20000000000001
 21
60.815297182098
 31
0.0
  0
LINE
  5
6A9
  8
DATA
  6
CONTINUOUS
 62
     7
 10
15.800000000000001
 20
60.59999999999998
 30
0.0
 11
24.20000000000001
 21
61.215297182097999
 31
0.0
  0
LINE
  5
6AA
  8
DATA
  6
CONTINUOUS
 62
     7
 10
15.800000000000001
 20
60.999999999999993
 30
0.0
 11
24.20000000000001
 21
61.61529718209799
 31
0.0
  0
LINE
  5
6AB
  8
DATA
  6
CONTINUOUS
 62
     7
 10
15.800000000000001
 20
61.399999999999977
 30
0.0
 11
24.20000000000001
 21
62.015297182097989
 31
0.0
  0
LINE
  5
6AC
  8
DATA
  6
CONTINUOUS
 62
     7
 10
15.800000000000001
 20
61.799999999999983
 30
0.0
 11
24.20000000000001
 21
62.415297182098001
 31
0.0
  0
LINE
  5
6AD
  8
DATA
  6
CONTINUOUS
 62
     7
 10
15.800000000000001
 20
62.199999999999982
 30
0.0
 11
24.20000000000001
 21
62.815297182097993
 31
0.0
  0
LINE
  5
6AE
  8
DATA
  6
CONTINUOUS
 62
     7
 10
15.800000000000001
 20
62.59999999999998
 30
0.0
 11
23.99116379310388
 21
63.199999999999989
 31
0.0
  0
LINE
  5
6AF
  8
DATA
  6
CONTINUOUS
 62
     7
 10
15.800000000000001
 20
62.999999999999993
 30
0.0
 11
18.530387931034561
 21
63.199999999999989
 31
0.0
  0
LINE
  5
6B0
  8
DATA
  6
CONTINUOUS
 62
     7
 10
93.049999999999983
 20
57.5
 30
0.0
 11
106.95
 21
57.5
 31
0.0
  0
LINE
  5
6B1
  8
DATA
  6
CONTINUOUS
 62
     7
 10
93.509477979398994
 20
53.59999999999998
 30
0.0
 11
106.49052202060101
 21
53.59999999999998
 31
0.0
  0
ARC
  5
6B2
  8
DATA
  6
CONTINUOUS
 62
     7
 10
93.049999999999983
 20
56.999999999999993
 30
0.0
 40
0.5
 50
90.0
 51
195.922327367962
  0
LINE
  5
6B3
  8
DATA
  6
CONTINUOUS
 62
     7
 10
93.474642510239704
 20
53.68888668066829
 30
0.0
 11
92.569182760782994
 21
56.862833012456562
 31
0.0
  0
LINE
  5
6B4
  8
DATA
  6
CONTINUOUS
 62
     7
 10
92.569182760782994
 20
56.862833012456562
 30
0.0
 11
107.43081723921701
 21
56.862833012456562
 31
0.0
  0
LINE
  5
6B5
  8
DATA
  6
CONTINUOUS
 62
     7
 10
106.444540249339
 20
53.526053665785312
 30
0.0
 11
105.9000000022351
 21
52.800000002980212
 31
0.0
  0
ARC
  5
6B6
  8
DATA
  6
CONTINUOUS
 62
     7
 10
106.95
 20
56.999999999999993
 30
0.0
 40
0.499999999999999
 50
344.07767263203789
 51
90.000000000000028
  0
LINE
  5
6B7
  8
DATA
  6
CONTINUOUS
 62
     7
 10
106.5253574897603
 20
53.68888668066829
 30
0.0
 11
107.43081723921701
 21
56.862833012456562
 31
0.0
  0
ARC
  5
6B8
  8
DATA
  6
CONTINUOUS
 62
     7
 10
93.955459756621437
 20
53.826053670255682
 30
0.0
 40
0.5000000074505641
 50
195.92232736796419
 51
216.86989764584629
  0
ARC
  5
6B9
  8
DATA
  6
CONTINUOUS
 62
     7
 10
94.500000003725276
 20
53.100000007450561
 30
0.0
 40
0.5000000074505806
 50
216.86989764584399
 51
270.0
  0
ARC
  5
6BA
  8
DATA
  6
CONTINUOUS
 62
     7
 10
106.04454024337851
 20
53.826053670255611
 30
0.0
 40
0.5000000074505664
 50
323.13010235416078
 51
344.07767263204278
  0
ARC
  5
6BB
  8
DATA
  6
CONTINUOUS
 62
     7
 10
105.4999999962747
 20
53.100000007450561
 30
0.0
 40
0.5000000074505806
 50
270.0
 51
323.13010235415612
  0
LINE
  5
6BC
  8
DATA
  6
CONTINUOUS
 62
     7
 10
-46.249999999999972
 20
37.90300000000002
 30
0.0
 11
-46.249999999999972
 21
41.368000000000002
 31
0.0
  0
LINE
  5
6BD
  8
DATA
  6
CONTINUOUS
 62
     7
 10
16.25
 20
37.90300000000002
 30
0.0
 11
23.75
 21
37.90300000000002
 31
0.0
  0
LINE
  5
6BE
  8
DATA
  6
CONTINUOUS
 62
     7
 10
16.25
 20
37.90300000000002
 30
0.0
 11
16.25
 21
41.368000000000002
 31
0.0
  0
LINE
  5
6BF
  8
DATA
  6
CONTINUOUS
 62
     7
 10
23.75
 20
37.90300000000002
 30
0.0
 11
23.75
 21
41.368000000000002
 31
0.0
  0
CIRCLE
  5
6C0
  8
DATA
  6
CONTINUOUS
 62
     7
 10
-50.0
 20
-129.99999999999821
 30
0.0
 40
9.4999999999985363
  0
ARC
  5
6C1
  8
DATA
  6
CONTINUOUS
 62
     7
 10
-50.0
 20
-129.99999999999869
 30
0.0
 40
5.5999999999990804
 50
103.2865587324759
 51
76.713441267524075
  0
POLYLINE
  5
6C2
  8
DATA
  6
CONTINUOUS
 62
     7
 66
     1
 10
0.0
 20
0.0
 30
0.0
 70
     1
  0
VERTEX
  5
800
  8
DATA
  6
CONTINUOUS
 62
     7
 10
-53.75
 20
-127.14493949403099
 30
0.0
  0
VERTEX
  5
801
  8
DATA
  6
CONTINUOUS
 62
     7
 10
-46.25
 20
-127.14493949403099
 30
0.0
  0
VERTEX
  5
802
  8
DATA
  6
CONTINUOUS
 62
     7
 10
-46.25
 20
-134.14493949403101
 30
0.0
  0
VERTEX
  5
803
  8
DATA
  6
CONTINUOUS
 62
     7
 10
-53.75
 20
-134.14493949403101
 30
0.0
  0
SEQEND
  5
804
  8
DATA
  6
CONTINUOUS
 62
     7
  0
LINE
  5
6C9
  8
DATA
  6
CONTINUOUS
 62
     7
 10
-51.287000000000042
 20
-124.5498962395195
 30
0.0
 11
-51.287000000000042
 21
-125.9999999999997
 31
0.0
  0
LINE
  5
6CA
  8
DATA
  6
CONTINUOUS
 62
     7
 10
-48.712999999999973
 20
-124.5498962395195
 30
0.0
 11
-48.712999999999973
 21
-125.89999999999969
 31
0.0
  0
LINE
  5
6CB
  8
DATA
  6
CONTINUOUS
 62
     7
 10
-51.287000000000042
 20
-125.89999999999969
 30
0.0
 11
-48.712999999999973
 21
-125.89999999999969
 31
0.0
  0
POLYLINE
  5
6CC
  8
DATA
  6
CONTINUOUS
 62
     7
 66
     1
 10
0.0
 20
0.0
 30
0.0
 70
     1
  0
VERTEX
  5
805
  8
DATA
  6
CONTINUOUS
 62
     7
 10
-52.625
 20
-128.14493949403101
 30
0.0
  0
VERTEX
  5
806
  8
DATA
  6
CONTINUOUS
 62
     7
 10
-51.125
 20
-128.14493949403101
 30
0.0
  0
VERTEX
  5
807
  8
DATA
  6
CONTINUOUS
 62
     7
 10
-51.125
 20
-129.64493949403089
 30
0.0
  0
VERTEX
  5
808
  8
DATA
  6
CONTINUOUS
 62
     7
 10
-52.625
 20
-129.64493949403089
 30
0.0
  0
SEQEND
  5
809
  8
DATA
  6
CONTINUOUS
 62
     7
  0
POLYLINE
  5
6D3
  8
DATA
  6
CONTINUOUS
 62
     7
 66
     1
 10
0.0
 20
0.0
 30
0.0
 70
     1
  0
VERTEX
  5
80A
  8
DATA
  6
CONTINUOUS
 62
     7
 10
-52.625
 20
-131.64493949403089
 30
0.0
  0
VERTEX
  5
80B
  8
DATA
  6
CONTINUOUS
 62
     7
 10
-51.125
 20
-131.64493949403089
 30
0.0
  0
VERTEX
  5
80C
  8
DATA
  6
CONTINUOUS
 62
     7
 10
-51.125
 20
-133.14493949403101
 30
0.0
  0
VERTEX
  5
80D
  8
DATA
  6
CONTINUOUS
 62
     7
 10
-52.625
 20
-133.14493949403101
 30
0.0
  0
SEQEND
  5
80E
  8
DATA
  6
CONTINUOUS
 62
     7
  0
POLYLINE
  5
6DA
  8
DATA
  6
CONTINUOUS
 62
     7
 66
     1
 10
0.0
 20
0.0
 30
0.0
 70
     1
  0
VERTEX
  5
80F
  8
DATA
  6
CONTINUOUS
 62
     7
 10
-48.875
 20
-131.64493949403089
 30
0.0
  0
VERTEX
  5
810
  8
DATA
  6
CONTINUOUS
 62
     7
 10
-47.374999999999993
 20
-131.64493949403089
 30
0.0
  0
VERTEX
  5
811
  8
DATA
  6
CONTINUOUS
 62
     7
 10
-47.374999999999993
 20
-133.14493949403101
 30
0.0
  0
VERTEX
  5
812
  8
DATA
  6
CONTINUOUS
 62
     7
 10
-48.875
 20
-133.14493949403101
 30
0.0
  0
SEQEND
  5
813
  8
DATA
  6
CONTINUOUS
 62
     7
  0
POLYLINE
  5
6E1
  8
DATA
  6
CONTINUOUS
 62
     7
 66
     1
 10
0.0
 20
0.0
 30
0.0
 70
     1
  0
VERTEX
  5
814
  8
DATA
  6
CONTINUOUS
 62
     7
 10
-48.875
 20
-128.14493949403101
 30
0.0
  0
VERTEX
  5
815
  8
DATA
  6
CONTINUOUS
 62
     7
 10
-47.374999999999993
 20
-128.14493949403101
 30
0.0
  0
VERTEX
  5
816
  8
DATA
  6
CONTINUOUS
 62
     7
 10
-47.374999999999993
 20
-129.64493949403089
 30
0.0
  0
VERTEX
  5
817
  8
DATA
  6
CONTINUOUS
 62
     7
 10
-48.875
 20
-129.64493949403089
 30
0.0
  0
SEQEND
  5
818
  8
DATA
  6
CONTINUOUS
 62
     7
  0
CIRCLE
  5
6E8
  8
DATA
  6
CONTINUOUS
 62
     7
 10
-50.0
 20
-129.99999999999969
 30
0.0
 40
8.5
  0
LINE
  5
6E9
  8
DATA
  6
CONTINUOUS
 62
     7
 10
-50.990000000000009
 20
-120.5517250251697
 30
0.0
 11
-50.990000000000009
 21
-121.00871536591799
 31
0.0
  0
LINE
  5
6EA
  8
DATA
  6
CONTINUOUS
 62
     7
 10
-48.712999999999973
 20
-120.58758102292489
 30
0.0
 11
-48.712999999999973
 21
-121.00871536591799
 31
0.0
  0
LINE
  5
6EB
  8
DATA
  6
CONTINUOUS
 62
     7
 10
-50.990000000000009
 20
-121.00871536591799
 30
0.0
 11
-48.712999999999973
 21
-121.00871536591799
 31
0.0
  0
LINE
  5
6EC
  8
DATA
  6
CONTINUOUS
 62
     7
 10
-59.448274974828472
 20
-130.98999999999819
 30
0.0
 11
-58.991284634080237
 21
-130.98999999999819
 31
0.0
  0
LINE
  5
6ED
  8
DATA
  6
CONTINUOUS
 62
     7
 10
-59.412418977073287
 20
-128.7129999999982
 30
0.0
 11
-58.991284634080237
 21
-128.7129999999982
 31
0.0
  0
LINE
  5
6EE
  8
DATA
  6
CONTINUOUS
 62
     7
 10
-58.991284634080237
 20
-130.98999999999819
 30
0.0
 11
-58.991284634080237
 21
-128.7129999999982
 31
0.0
  0
LINE
  5
6EF
  8
DATA
  6
CONTINUOUS
 62
     7
 10
-40.551725025171521
 20
-130.98999999999819
 30
0.0
 11
-41.008715365919748
 21
-130.98999999999819
 31
0.0
  0
LINE
  5
6F0
  8
DATA
  6
CONTINUOUS
 62
     7
 10
-40.587581022926678
 20
-128.7129999999982
 30
0.0
 11
-41.008715365919748
 21
-128.7129999999982
 31
0.0
  0
LINE
  5
6F1
  8
DATA
  6
CONTINUOUS
 62
     7
 10
-41.008715365919748
 20
-130.98999999999819
 30
0.0
 11
-41.008715365919748
 21
-128.7129999999982
 31
0.0
  0
LINE
  5
6F2
  8
DATA
  6
CONTINUOUS
 62
     7
 10
-50.990000000000009
 20
-139.44827497482669
 30
0.0
 11
-50.990000000000009
 21
-138.99128463407851
 31
0.0
  0
LINE
  5
6F3
  8
DATA
  6
CONTINUOUS
 62
     7
 10
-48.712999999999973
 20
-139.41241897707161
 30
0.0
 11
-48.712999999999973
 21
-138.99128463407851
 31
0.0
  0
LINE
  5
6F4
  8
DATA
  6
CONTINUOUS
 62
     7
 10
-50.990000000000009
 20
-138.99128463407851
 30
0.0
 11
-48.712999999999973
 21
-138.99128463407851
 31
0.0
  0
LINE
  5
6F5
  8
DATA
  6
CONTINUOUS
 62
     7
 10
-46.606205979799562
 20
-125.5455458080195
 30
0.0
 11
-44.543365078475837
 21
-123.4827049066958
 31
0.0
  0
LINE
  5
6F6
  8
DATA
  6
CONTINUOUS
 62
     7
 10
-45.54554580801986
 20
-126.6062059797994
 30
0.0
 11
-43.482704906696021
 21
-124.5433650784756
 31
0.0
  0
LINE
  5
6F7
  8
DATA
  6
CONTINUOUS
 62
     7
 10
-53.393794020200431
 20
-134.45445419197691
 30
0.0
 11
-55.456634921524142
 21
-136.5172950933007
 31
0.0
  0
LINE
  5
6F8
  8
DATA
  6
CONTINUOUS
 62
     7
 10
-54.454454191980133
 20
-133.39379402019699
 30
0.0
 11
-56.517295093303957
 21
-135.45663492152079
 31
0.0
  0
ENDSEC
  0
EOF
